  0
SECTION
  2
HEADER
  9
$ACADVER
  1
AC1009
  9
$DWGCODEPAGE
  3
ansi_1252
  9
$INSBASE
 10
0.0
 20
0.0
 30
0.0
  9
$EXTMIN
 10
1.000000000000000E+20
 20
1.000000000000000E+20
 30
1.000000000000000E+20
  9
$EXTMAX
 10
-1.000000000000000E+20
 20
-1.000000000000000E+20
 30
-1.000000000000000E+20
  9
$LIMMIN
 10
0.0
 20
0.0
  9
$LIMMAX
 10
12.0
 20
9.0
  9
$ORTHOMODE
 70
     0
  9
$REGENMODE
 70
     1
  9
$FILLMODE
 70
     1
  9
$QTEXTMODE
 70
     0
  9
$MIRRTEXT
 70
     1
  9
$DRAGMODE
 70
     2
  9
$LTSCALE
 40
1.0
  9
$OSMODE
 70
    37
  9
$ATTMODE
 70
     1
  9
$TEXTSIZE
 40
0.2
  9
$TRACEWID
 40
0.05
  9
$TEXTSTYLE
  7
STANDARD
  9
$CLAYER
  8
0
  9
$CELTYPE
  6
BYLAYER
  9
$CECOLOR
 62
   256
  9
$DIMSCALE
 40
1.0
  9
$DIMASZ
 40
0.18
  9
$DIMEXO
 40
0.0625
  9
$DIMDLI
 40
0.38
  9
$DIMRND
 40
0.0
  9
$DIMDLE
 40
0.0
  9
$DIMEXE
 40
0.18
  9
$DIMTP
 40
0.0
  9
$DIMTM
 40
0.0
  9
$DIMTXT
 40
0.18
  9
$DIMCEN
 40
0.09
  9
$DIMTSZ
 40
0.0
  9
$DIMTOL
 70
     0
  9
$DIMLIM
 70
     0
  9
$DIMTIH
 70
     1
  9
$DIMTOH
 70
     1
  9
$DIMSE1
 70
     0
  9
$DIMSE2
 70
     0
  9
$DIMTAD
 70
     0
  9
$DIMZIN
 70
     0
  9
$DIMBLK
  1

  9
$DIMASO
 70
     1
  9
$DIMSHO
 70
     1
  9
$DIMPOST
  1

  9
$DIMAPOST
  1

  9
$DIMALT
 70
     0
  9
$DIMALTD
 70
     2
  9
$DIMALTF
 40
25.4
  9
$DIMLFAC
 40
1.0
  9
$DIMTOFL
 70
     0
  9
$DIMTVP
 40
0.0
  9
$DIMTIX
 70
     0
  9
$DIMSOXD
 70
     0
  9
$DIMSAH
 70
     0
  9
$DIMBLK1
  1

  9
$DIMBLK2
  1

  9
$DIMSTYLE
  2
STANDARD
  9
$DIMCLRD
 70
     0
  9
$DIMCLRE
 70
     0
  9
$DIMCLRT
 70
     0
  9
$DIMTFAC
 40
1.0
  9
$DIMGAP
 40
0.09
  9
$LUNITS
 70
     2
  9
$LUPREC
 70
     4
  9
$SKETCHINC
 40
0.1
  9
$FILLETRAD
 40
0.5
  9
$AUNITS
 70
     0
  9
$AUPREC
 70
     0
  9
$MENU
  1
.
  9
$ELEVATION
 40
0.0
  9
$PELEVATION
 40
0.0
  9
$THICKNESS
 40
0.0
  9
$LIMCHECK
 70
     0
  9
$CHAMFERA
 40
0.5
  9
$CHAMFERB
 40
0.5
  9
$SKPOLY
 70
     0
  9
$TDCREATE
 40
2455425.926860706
  9
$TDUPDATE
 40
2455425.926860706
  9
$TDINDWG
 40
0.0000000116
  9
$TDUSRTIMER
 40
0.0000000116
  9
$USRTIMER
 70
     1
  9
$ANGBASE
 50
0.0
  9
$ANGDIR
 70
     0
  9
$PDMODE
 70
     0
  9
$PDSIZE
 40
0.0
  9
$PLINEWID
 40
0.0
  9
$COORDS
 70
     1
  9
$SPLFRAME
 70
     0
  9
$SPLINETYPE
 70
     6
  9
$SPLINESEGS
 70
     8
  9
$ATTDIA
 70
     0
  9
$ATTREQ
 70
     1
  9
$HANDLING
 70
     1
  9
$HANDSEED
  5
813
  9
$SURFTAB1
 70
     6
  9
$SURFTAB2
 70
     6
  9
$SURFTYPE
 70
     6
  9
$SURFU
 70
     6
  9
$SURFV
 70
     6
  9
$UCSNAME
  2

  9
$UCSORG
 10
0.0
 20
0.0
 30
0.0
  9
$UCSXDIR
 10
1.0
 20
0.0
 30
0.0
  9
$UCSYDIR
 10
0.0
 20
1.0
 30
0.0
  9
$PUCSNAME
  2

  9
$PUCSORG
 10
0.0
 20
0.0
 30
0.0
  9
$PUCSXDIR
 10
1.0
 20
0.0
 30
0.0
  9
$PUCSYDIR
 10
0.0
 20
1.0
 30
0.0
  9
$USERI1
 70
     0
  9
$USERI2
 70
     0
  9
$USERI3
 70
     0
  9
$USERI4
 70
     0
  9
$USERI5
 70
     0
  9
$USERR1
 40
0.0
  9
$USERR2
 40
0.0
  9
$USERR3
 40
0.0
  9
$USERR4
 40
0.0
  9
$USERR5
 40
0.0
  9
$WORLDVIEW
 70
     1
  9
$SHADEDGE
 70
     3
  9
$SHADEDIF
 70
    70
  9
$TILEMODE
 70
     1
  9
$MAXACTVP
 70
    64
  9
$PLIMCHECK
 70
     0
  9
$PEXTMIN
 10
1.000000000000000E+20
 20
1.000000000000000E+20
 30
1.000000000000000E+20
  9
$PEXTMAX
 10
-1.000000000000000E+20
 20
-1.000000000000000E+20
 30
-1.000000000000000E+20
  9
$PLIMMIN
 10
0.0
 20
0.0
  9
$PLIMMAX
 10
12.0
 20
9.0
  9
$UNITMODE
 70
     0
  9
$VISRETAIN
 70
     1
  9
$PLINEGEN
 70
     0
  9
$PSLTSCALE
 70
     1
  0
ENDSEC
  0
SECTION
  2
TABLES
  0
TABLE
  2
VPORT
 70
     1
  0
VPORT
  2
*ACTIVE
 70
     0
 10
0.0
 20
0.0
 11
1.0
 21
1.0
 12
0.0
 22
0.0
 13
0.0
 23
0.0
 14
0.5
 24
0.5
 15
0.5
 25
0.5
 16
240.4405975341797
 26
137.3827819824219
 36
240.4405822753906
 17
99.28450012207031
 27
0.0
 37
-8.750503540039062
 40
131.577605791302
 41
1.972972972850329
 42
50.0
 43
0.0
 44
0.0
 50
0.0
 51
0.0
 71
     0
 72
   100
 73
     1
 74
     3
 75
     0
 76
     0
 77
     0
 78
     0
  0
ENDTAB
  0
TABLE
  2
LTYPE
 70
     1
  0
LTYPE
  2
CONTINUOUS
 70
     0
  3
Solid line
 72
    65
 73
     0
 40
0.0
  0
ENDTAB
  0
TABLE
  2
LAYER
 70
     2
  0
LAYER
  2
0
 70
     0
 62
     7
  6
CONTINUOUS
  0
LAYER
  2
LAYER_1
 70
     0
 62
     7
  6
CONTINUOUS
  0
ENDTAB
  0
TABLE
  2
STYLE
 70
     1
  0
STYLE
  2
STANDARD
 70
     0
 40
0.0
 41
1.0
 50
0.0
 71
     0
 42
0.2
  3
txt
  4

  0
ENDTAB
  0
TABLE
  2
VIEW
 70
     0
  0
ENDTAB
  0
TABLE
  2
UCS
 70
     0
  0
ENDTAB
  0
TABLE
  2
APPID
 70
     1
  0
APPID
  2
ACAD
 70
     0
  0
ENDTAB
  0
TABLE
  2
DIMSTYLE
 70
     1
  0
DIMSTYLE
  2
STANDARD
 70
     0
  3

  4

  5

  6

  7

 40
1.0
 41
0.18
 42
0.0625
 43
0.38
 44
0.18
 45
0.0
 46
0.0
 47
0.0
 48
0.0
140
0.18
141
0.09
142
0.0
143
25.4
144
1.0
145
0.0
146
1.0
147
0.09
 71
     0
 72
     0
 73
     1
 74
     1
 75
     0
 76
     0
 77
     0
 78
     0
170
     0
171
     2
172
     0
173
     0
174
     0
175
     0
176
     0
177
     0
178
     0
  0
ENDTAB
  0
ENDSEC
  0
SECTION
  2
BLOCKS
  0
BLOCK
  8
0
  2
$MODEL_SPACE
 70
     0
 10
0.0
 20
0.0
 30
0.0
  3
$MODEL_SPACE
  1

  0
ENDBLK
  5
21
  8
0
  0
BLOCK
 67
     1
  8
0
  2
$PAPER_SPACE
 70
     0
 10
0.0
 20
0.0
 30
0.0
  3
$PAPER_SPACE
  1

  0
ENDBLK
  5
1D
 67
     1
  8
0
  0
BLOCK
  8
0
  2
E3_NODE
 70
     0
 10
0.0
 20
0.0
 30
0.0
  3
E3_NODE
  1

  0
POLYLINE
  5
3C
  8
0
 62
     9
 66
     1
 10
0.0
 20
0.0
 30
0.0
 70
    64
 71
    24
 72
    24
  0
VERTEX
  5
3D
  8
0
 10
64.80799865722656
 20
-26.15999984741211
 30
9.0
 70
   192
  0
VERTEX
  5
3E
  8
0
 10
90.00299835205078
 20
-25.94000053405762
 30
9.0
 70
   192
  0
VERTEX
  5
3F
  8
0
 10
90.00299835205078
 20
-22.46500015258789
 30
21.96999931335449
 70
   192
  0
VERTEX
  5
40
  8
0
 10
64.80799865722656
 20
-22.65500068664551
 30
22.07999992370605
 70
   192
  0
VERTEX
  5
41
  8
0
 10
90.00299835205078
 20
-12.97000026702881
 30
31.46500015258789
 70
   192
  0
VERTEX
  5
42
  8
0
 10
64.80799865722656
 20
-13.07999992370605
 30
31.65500068664551
 70
   192
  0
VERTEX
  5
43
  8
0
 10
90.00299835205078
 20
0.0
 30
34.93999862670898
 70
   192
  0
VERTEX
  5
44
  8
0
 10
64.80799865722656
 20
0.0
 30
35.15999984741211
 70
   192
  0
VERTEX
  5
45
  8
0
 10
90.00299835205078
 20
12.97000026702881
 30
31.46500015258789
 70
   192
  0
VERTEX
  5
46
  8
0
 10
64.80799865722656
 20
13.07999992370605
 30
31.65500068664551
 70
   192
  0
VERTEX
  5
47
  8
0
 10
90.00299835205078
 20
22.46500015258789
 30
21.96999931335449
 70
   192
  0
VERTEX
  5
48
  8
0
 10
64.80799865722656
 20
26.15999984741211
 30
9.0
 70
   192
  0
VERTEX
  5
49
  8
0
 10
64.80799865722656
 20
22.65500068664551
 30
22.07999992370605
 70
   192
  0
VERTEX
  5
4A
  8
0
 10
64.80799865722656
 20
22.65500068664551
 30
-4.079999923706055
 70
   192
  0
VERTEX
  5
4B
  8
0
 10
90.00299835205078
 20
25.94000053405762
 30
9.0
 70
   192
  0
VERTEX
  5
4C
  8
0
 10
64.80799865722656
 20
13.07999992370605
 30
-13.65499973297119
 70
   192
  0
VERTEX
  5
4D
  8
0
 10
90.00299835205078
 20
22.46500015258789
 30
-3.970000028610229
 70
   192
  0
VERTEX
  5
4E
  8
0
 10
64.80799865722656
 20
0.0
 30
-17.15999984741211
 70
   192
  0
VERTEX
  5
4F
  8
0
 10
90.00299835205078
 20
12.97000026702881
 30
-13.46500015258789
 70
   192
  0
VERTEX
  5
50
  8
0
 10
64.80799865722656
 20
-13.07999992370605
 30
-13.65499973297119
 70
   192
  0
VERTEX
  5
51
  8
0
 10
90.00299835205078
 20
0.0
 30
-16.94000053405762
 70
   192
  0
VERTEX
  5
52
  8
0
 10
64.80799865722656
 20
-22.65500068664551
 30
-4.079999923706055
 70
   192
  0
VERTEX
  5
53
  8
0
 10
90.00299835205078
 20
-12.97000026702881
 30
-13.46500015258789
 70
   192
  0
VERTEX
  5
54
  8
0
 10
90.00299835205078
 20
-22.46500015258789
 30
-3.970000028610229
 70
   192
  0
VERTEX
  5
55
  8
0
 62
     9
 10
0.0
 20
0.0
 30
0.0
 70
   128
 71
     3
 72
     2
 73
     1
  0
VERTEX
  5
56
  8
0
 62
     9
 10
0.0
 20
0.0
 30
0.0
 70
   128
 71
     5
 72
     3
 73
     4
  0
VERTEX
  5
57
  8
0
 62
     9
 10
0.0
 20
0.0
 30
0.0
 70
   128
 71
     7
 72
     5
 73
     6
  0
VERTEX
  5
58
  8
0
 62
     9
 10
0.0
 20
0.0
 30
0.0
 70
   128
 71
     9
 72
     7
 73
     8
  0
VERTEX
  5
59
  8
0
 62
     9
 10
0.0
 20
0.0
 30
0.0
 70
   128
 71
    11
 72
     9
 73
    10
  0
VERTEX
  5
5A
  8
0
 62
     9
 10
0.0
 20
0.0
 30
0.0
 70
   128
 71
    11
 72
    13
 73
    12
  0
VERTEX
  5
5B
  8
0
 62
     9
 10
0.0
 20
0.0
 30
0.0
 70
   128
 71
    15
 72
    12
 73
    14
  0
VERTEX
  5
5C
  8
0
 62
     9
 10
0.0
 20
0.0
 30
0.0
 70
   128
 71
    17
 72
    14
 73
    16
  0
VERTEX
  5
5D
  8
0
 62
     9
 10
0.0
 20
0.0
 30
0.0
 70
   128
 71
    19
 72
    16
 73
    18
  0
VERTEX
  5
5E
  8
0
 62
     9
 10
0.0
 20
0.0
 30
0.0
 70
   128
 71
    21
 72
    18
 73
    20
  0
VERTEX
  5
5F
  8
0
 62
     9
 10
0.0
 20
0.0
 30
0.0
 70
   128
 71
    23
 72
    20
 73
    22
  0
VERTEX
  5
60
  8
0
 62
     9
 10
0.0
 20
0.0
 30
0.0
 70
   128
 71
     2
 72
    24
 73
    22
  0
VERTEX
  5
61
  8
0
 62
     9
 10
0.0
 20
0.0
 30
0.0
 70
   128
 71
    22
 72
     1
 73
     2
  0
VERTEX
  5
62
  8
0
 62
     9
 10
0.0
 20
0.0
 30
0.0
 70
   128
 71
    22
 72
    24
 73
    23
  0
VERTEX
  5
63
  8
0
 62
     9
 10
0.0
 20
0.0
 30
0.0
 70
   128
 71
    20
 72
    23
 73
    21
  0
VERTEX
  5
64
  8
0
 62
     9
 10
0.0
 20
0.0
 30
0.0
 70
   128
 71
    18
 72
    21
 73
    19
  0
VERTEX
  5
65
  8
0
 62
     9
 10
0.0
 20
0.0
 30
0.0
 70
   128
 71
    16
 72
    19
 73
    17
  0
VERTEX
  5
66
  8
0
 62
     9
 10
0.0
 20
0.0
 30
0.0
 70
   128
 71
    14
 72
    17
 73
    15
  0
VERTEX
  5
67
  8
0
 62
     9
 10
0.0
 20
0.0
 30
0.0
 70
   128
 71
    12
 72
    15
 73
    11
  0
VERTEX
  5
68
  8
0
 62
     9
 10
0.0
 20
0.0
 30
0.0
 70
   128
 71
    10
 72
    13
 73
    11
  0
VERTEX
  5
69
  8
0
 62
     9
 10
0.0
 20
0.0
 30
0.0
 70
   128
 71
     8
 72
    10
 73
     9
  0
VERTEX
  5
6A
  8
0
 62
     9
 10
0.0
 20
0.0
 30
0.0
 70
   128
 71
     6
 72
     8
 73
     7
  0
VERTEX
  5
6B
  8
0
 62
     9
 10
0.0
 20
0.0
 30
0.0
 70
   128
 71
     4
 72
     6
 73
     5
  0
VERTEX
  5
6C
  8
0
 62
     9
 10
0.0
 20
0.0
 30
0.0
 70
   128
 71
     1
 72
     4
 73
     3
  0
SEQEND
  5
6D
  8
0
 62
     9
  0
ENDBLK
  5
71
  8
0
  0
BLOCK
  8
0
  2
E3_NODE_1_
 70
     0
 10
0.0
 20
0.0
 30
0.0
  3
E3_NODE_1_
  1

  0
POLYLINE
  5
73
  8
0
 62
     9
 66
     1
 10
0.0
 20
0.0
 30
0.0
 70
    64
 71
    28
 72
    28
  0
VERTEX
  5
74
  8
0
 10
90.00299835205078
 20
0.0
 30
-16.94000053405762
 70
   192
  0
VERTEX
  5
75
  8
0
 10
90.00299835205078
 20
12.97000026702881
 30
-13.46500015258789
 70
   192
  0
VERTEX
  5
76
  8
0
 10
90.00299835205078
 20
9.286999702453613
 30
-13.42199993133545
 70
   192
  0
VERTEX
  5
77
  8
0
 10
90.00299835205078
 20
22.46500015258789
 30
-3.970000028610229
 70
   192
  0
VERTEX
  5
78
  8
0
 10
90.00299835205078
 20
17.1609992980957
 30
-8.16100025177002
 70
   192
  0
VERTEX
  5
79
  8
0
 10
90.00299835205078
 20
-25.94000053405762
 30
9.0
 70
   192
  0
VERTEX
  5
7A
  8
0
 10
90.00299835205078
 20
-24.26899909973145
 30
9.0
 70
   192
  0
VERTEX
  5
7B
  8
0
 10
90.00299835205078
 20
-22.42200088500977
 30
18.28700065612793
 70
   192
  0
VERTEX
  5
7C
  8
0
 10
90.00299835205078
 20
-22.46500015258789
 30
-3.970000028610229
 70
   192
  0
VERTEX
  5
7D
  8
0
 10
90.00299835205078
 20
-22.42200088500977
 30
-0.2870000004768372
 70
   192
  0
VERTEX
  5
7E
  8
0
 10
90.00299835205078
 20
0.0
 30
-15.26900005340576
 70
   192
  0
VERTEX
  5
7F
  8
0
 10
90.00299835205078
 20
-9.286999702453613
 30
-13.42199993133545
 70
   192
  0
VERTEX
  5
80
  8
0
 10
90.00299835205078
 20
25.94000053405762
 30
9.0
 70
   192
  0
VERTEX
  5
81
  8
0
 10
90.00299835205078
 20
22.46500015258789
 30
21.96999931335449
 70
   192
  0
VERTEX
  5
82
  8
0
 10
90.00299835205078
 20
22.42200088500977
 30
18.28700065612793
 70
   192
  0
VERTEX
  5
83
  8
0
 10
90.00299835205078
 20
-22.46500015258789
 30
21.96999931335449
 70
   192
  0
VERTEX
  5
84
  8
0
 10
90.00299835205078
 20
-17.1609992980957
 30
26.1609992980957
 70
   192
  0
VERTEX
  5
85
  8
0
 10
90.00299835205078
 20
-12.97000026702881
 30
-13.46500015258789
 70
   192
  0
VERTEX
  5
86
  8
0
 10
90.00299835205078
 20
-17.1609992980957
 30
-8.16100025177002
 70
   192
  0
VERTEX
  5
87
  8
0
 10
90.00299835205078
 20
22.42200088500977
 30
-0.2870000004768372
 70
   192
  0
VERTEX
  5
88
  8
0
 10
90.00299835205078
 20
17.1609992980957
 30
26.1609992980957
 70
   192
  0
VERTEX
  5
89
  8
0
 10
90.00299835205078
 20
12.97000026702881
 30
31.46500015258789
 70
   192
  0
VERTEX
  5
8A
  8
0
 10
90.00299835205078
 20
9.286999702453613
 30
31.42200088500977
 70
   192
  0
VERTEX
  5
8B
  8
0
 10
90.00299835205078
 20
0.0
 30
34.93999862670898
 70
   192
  0
VERTEX
  5
8C
  8
0
 10
90.00299835205078
 20
0.0
 30
33.26900100708008
 70
   192
  0
VERTEX
  5
8D
  8
0
 10
90.00299835205078
 20
-12.97000026702881
 30
31.46500015258789
 70
   192
  0
VERTEX
  5
8E
  8
0
 10
90.00299835205078
 20
-9.286999702453613
 30
31.42200088500977
 70
   192
  0
VERTEX
  5
8F
  8
0
 10
90.00299835205078
 20
24.26899909973145
 30
9.0
 70
   192
  0
VERTEX
  5
90
  8
0
 62
     9
 10
0.0
 20
0.0
 30
0.0
 70
   128
 71
     3
 72
     2
 73
     1
  0
VERTEX
  5
91
  8
0
 62
     9
 10
0.0
 20
0.0
 30
0.0
 70
   128
 71
     5
 72
     4
 73
     2
  0
VERTEX
  5
92
  8
0
 62
     9
 10
0.0
 20
0.0
 30
0.0
 70
   128
 71
     8
 72
     7
 73
     6
  0
VERTEX
  5
93
  8
0
 62
     9
 10
0.0
 20
0.0
 30
0.0
 70
   128
 71
    10
 72
     9
 73
     6
  0
VERTEX
  5
94
  8
0
 62
     9
 10
0.0
 20
0.0
 30
0.0
 70
   128
 71
    12
 72
    11
 73
     1
  0
VERTEX
  5
95
  8
0
 62
     9
 10
0.0
 20
0.0
 30
0.0
 70
   128
 71
     2
 72
     3
 73
     5
  0
VERTEX
  5
96
  8
0
 62
     9
 10
0.0
 20
0.0
 30
0.0
 70
   128
 71
    15
 72
    14
 73
    13
  0
VERTEX
  5
97
  8
0
 62
     9
 10
0.0
 20
0.0
 30
0.0
 70
   128
 71
    17
 72
     8
 73
    16
  0
VERTEX
  5
98
  8
0
 62
     9
 10
0.0
 20
0.0
 30
0.0
 70
   128
 71
     6
 72
     7
 73
    10
  0
VERTEX
  5
99
  8
0
 62
     9
 10
0.0
 20
0.0
 30
0.0
 70
   128
 71
    19
 72
    18
 73
     9
  0
VERTEX
  5
9A
  8
0
 62
     9
 10
0.0
 20
0.0
 30
0.0
 70
   128
 71
     1
 72
    18
 73
    12
  0
VERTEX
  5
9B
  8
0
 62
     9
 10
0.0
 20
0.0
 30
0.0
 70
   128
 71
     5
 72
    20
 73
     4
  0
VERTEX
  5
9C
  8
0
 62
     9
 10
0.0
 20
0.0
 30
0.0
 70
   128
 71
    15
 72
    21
 73
    14
  0
VERTEX
  5
9D
  8
0
 62
     9
 10
0.0
 20
0.0
 30
0.0
 70
   128
 71
    21
 72
    23
 73
    22
  0
VERTEX
  5
9E
  8
0
 62
     9
 10
0.0
 20
0.0
 30
0.0
 70
   128
 71
    23
 72
    25
 73
    24
  0
VERTEX
  5
9F
  8
0
 62
     9
 10
0.0
 20
0.0
 30
0.0
 70
   128
 71
    27
 72
    26
 73
    24
  0
VERTEX
  5
A0
  8
0
 62
     9
 10
0.0
 20
0.0
 30
0.0
 70
   128
 71
    16
 72
    26
 73
    17
  0
VERTEX
  5
A1
  8
0
 62
     9
 10
0.0
 20
0.0
 30
0.0
 70
   128
 71
     9
 72
    10
 73
    19
  0
VERTEX
  5
A2
  8
0
 62
     9
 10
0.0
 20
0.0
 30
0.0
 70
   128
 71
     1
 72
    11
 73
     3
  0
VERTEX
  5
A3
  8
0
 62
     9
 10
0.0
 20
0.0
 30
0.0
 70
   128
 71
    20
 72
    28
 73
    13
  0
VERTEX
  5
A4
  8
0
 62
     9
 10
0.0
 20
0.0
 30
0.0
 70
   128
 71
    22
 72
    14
 73
    21
  0
VERTEX
  5
A5
  8
0
 62
     9
 10
0.0
 20
0.0
 30
0.0
 70
   128
 71
    24
 72
    25
 73
    27
  0
VERTEX
  5
A6
  8
0
 62
     9
 10
0.0
 20
0.0
 30
0.0
 70
   128
 71
     6
 72
    16
 73
     8
  0
VERTEX
  5
A7
  8
0
 62
     9
 10
0.0
 20
0.0
 30
0.0
 70
   128
 71
    13
 72
     4
 73
    20
  0
VERTEX
  5
A8
  8
0
 62
     9
 10
0.0
 20
0.0
 30
0.0
 70
   128
 71
    24
 72
    22
 73
    23
  0
VERTEX
  5
A9
  8
0
 62
     9
 10
0.0
 20
0.0
 30
0.0
 70
   128
 71
    18
 72
    19
 73
    12
  0
VERTEX
  5
AA
  8
0
 62
     9
 10
0.0
 20
0.0
 30
0.0
 70
   128
 71
    26
 72
    27
 73
    17
  0
VERTEX
  5
AB
  8
0
 62
     9
 10
0.0
 20
0.0
 30
0.0
 70
   128
 71
    13
 72
    28
 73
    15
  0
SEQEND
  5
AC
  8
0
 62
     9
  0
ENDBLK
  5
AF
  8
0
  0
BLOCK
  8
0
  2
E3_NODE_2_
 70
     0
 10
0.0
 20
0.0
 30
0.0
  3
E3_NODE_2_
  1

  0
POLYLINE
  5
B1
  8
0
 62
     9
 66
     1
 10
0.0
 20
0.0
 30
0.0
 70
    64
 71
    48
 72
    64
  0
VERTEX
  5
B2
  8
0
 10
97.80500030517578
 20
-20.84499931335449
 30
9.0
 70
   192
  0
VERTEX
  5
B3
  8
0
 10
104.0029983520508
 20
-15.0
 30
9.0
 70
   192
  0
VERTEX
  5
B4
  8
0
 10
104.0029983520508
 20
-13.85799980163574
 30
14.73999977111816
 70
   192
  0
VERTEX
  5
B5
  8
0
 10
97.80500030517578
 20
-19.25799942016602
 30
16.97699928283691
 70
   192
  0
VERTEX
  5
B6
  8
0
 10
104.0029983520508
 20
-10.60700035095215
 30
19.60700035095215
 70
   192
  0
VERTEX
  5
B7
  8
0
 10
97.80500030517578
 20
-7.97700023651123
 30
28.25799942016602
 70
   192
  0
VERTEX
  5
B8
  8
0
 10
97.80500030517578
 20
-14.73999977111816
 30
23.73999977111816
 70
   192
  0
VERTEX
  5
B9
  8
0
 10
97.80500030517578
 20
0.0
 30
29.84499931335449
 70
   192
  0
VERTEX
  5
BA
  8
0
 10
104.0029983520508
 20
-5.739999771118164
 30
22.85799980163574
 70
   192
  0
VERTEX
  5
BB
  8
0
 10
97.80500030517578
 20
7.97700023651123
 30
28.25799942016602
 70
   192
  0
VERTEX
  5
BC
  8
0
 10
104.0029983520508
 20
0.0
 30
24.0
 70
   192
  0
VERTEX
  5
BD
  8
0
 10
97.80500030517578
 20
14.73999977111816
 30
23.73999977111816
 70
   192
  0
VERTEX
  5
BE
  8
0
 10
104.0029983520508
 20
5.739999771118164
 30
22.85799980163574
 70
   192
  0
VERTEX
  5
BF
  8
0
 10
97.80500030517578
 20
19.25799942016602
 30
16.97699928283691
 70
   192
  0
VERTEX
  5
C0
  8
0
 10
104.0029983520508
 20
10.60700035095215
 30
19.60700035095215
 70
   192
  0
VERTEX
  5
C1
  8
0
 10
97.80500030517578
 20
20.84499931335449
 30
9.0
 70
   192
  0
VERTEX
  5
C2
  8
0
 10
104.0029983520508
 20
13.85799980163574
 30
14.73999977111816
 70
   192
  0
VERTEX
  5
C3
  8
0
 10
97.80500030517578
 20
19.25799942016602
 30
1.023000001907349
 70
   192
  0
VERTEX
  5
C4
  8
0
 10
104.0029983520508
 20
15.0
 30
9.0
 70
   192
  0
VERTEX
  5
C5
  8
0
 10
97.80500030517578
 20
14.73999977111816
 30
-5.739999771118164
 70
   192
  0
VERTEX
  5
C6
  8
0
 10
104.0029983520508
 20
13.85799980163574
 30
3.259999990463257
 70
   192
  0
VERTEX
  5
C7
  8
0
 10
97.80500030517578
 20
7.97700023651123
 30
-10.25800037384033
 70
   192
  0
VERTEX
  5
C8
  8
0
 10
104.0029983520508
 20
10.60700035095215
 30
-1.60699999332428
 70
   192
  0
VERTEX
  5
C9
  8
0
 10
97.80500030517578
 20
0.0
 30
-11.84500026702881
 70
   192
  0
VERTEX
  5
CA
  8
0
 10
104.0029983520508
 20
5.739999771118164
 30
-4.857999801635742
 70
   192
  0
VERTEX
  5
CB
  8
0
 10
97.80500030517578
 20
-7.97700023651123
 30
-10.25800037384033
 70
   192
  0
VERTEX
  5
CC
  8
0
 10
104.0029983520508
 20
0.0
 30
-6.0
 70
   192
  0
VERTEX
  5
CD
  8
0
 10
97.80500030517578
 20
-14.73999977111816
 30
-5.739999771118164
 70
   192
  0
VERTEX
  5
CE
  8
0
 10
104.0029983520508
 20
-5.739999771118164
 30
-4.857999801635742
 70
   192
  0
VERTEX
  5
CF
  8
0
 10
97.80500030517578
 20
-19.25799942016602
 30
1.023000001907349
 70
   192
  0
VERTEX
  5
D0
  8
0
 10
104.0029983520508
 20
-10.60700035095215
 30
-1.60699999332428
 70
   192
  0
VERTEX
  5
D1
  8
0
 10
104.0029983520508
 20
-13.85799980163574
 30
3.259999990463257
 70
   192
  0
VERTEX
  5
D2
  8
0
 10
90.00299835205078
 20
-22.42200088500977
 30
18.28700065612793
 70
   192
  0
VERTEX
  5
D3
  8
0
 10
90.00299835205078
 20
-24.26899909973145
 30
9.0
 70
   192
  0
VERTEX
  5
D4
  8
0
 10
90.00299835205078
 20
-17.1609992980957
 30
26.1609992980957
 70
   192
  0
VERTEX
  5
D5
  8
0
 10
90.00299835205078
 20
-9.286999702453613
 30
31.42200088500977
 70
   192
  0
VERTEX
  5
D6
  8
0
 10
90.00299835205078
 20
9.286999702453613
 30
31.42200088500977
 70
   192
  0
VERTEX
  5
D7
  8
0
 10
90.00299835205078
 20
0.0
 30
33.26900100708008
 70
   192
  0
VERTEX
  5
D8
  8
0
 10
90.00299835205078
 20
17.1609992980957
 30
26.1609992980957
 70
   192
  0
VERTEX
  5
D9
  8
0
 10
90.00299835205078
 20
24.26899909973145
 30
9.0
 70
   192
  0
VERTEX
  5
DA
  8
0
 10
90.00299835205078
 20
22.42200088500977
 30
18.28700065612793
 70
   192
  0
VERTEX
  5
DB
  8
0
 10
90.00299835205078
 20
22.42200088500977
 30
-0.2870000004768372
 70
   192
  0
VERTEX
  5
DC
  8
0
 10
90.00299835205078
 20
17.1609992980957
 30
-8.16100025177002
 70
   192
  0
VERTEX
  5
DD
  8
0
 10
90.00299835205078
 20
9.286999702453613
 30
-13.42199993133545
 70
   192
  0
VERTEX
  5
DE
  8
0
 10
90.00299835205078
 20
0.0
 30
-15.26900005340576
 70
   192
  0
VERTEX
  5
DF
  8
0
 10
90.00299835205078
 20
-9.286999702453613
 30
-13.42199993133545
 70
   192
  0
VERTEX
  5
E0
  8
0
 10
90.00299835205078
 20
-17.1609992980957
 30
-8.16100025177002
 70
   192
  0
VERTEX
  5
E1
  8
0
 10
90.00299835205078
 20
-22.42200088500977
 30
-0.2870000004768372
 70
   192
  0
VERTEX
  5
E2
  8
0
 62
     9
 10
0.0
 20
0.0
 30
0.0
 70
   128
 71
     3
 72
     2
 73
     1
  0
VERTEX
  5
E3
  8
0
 62
     9
 10
0.0
 20
0.0
 30
0.0
 70
   128
 71
     5
 72
     3
 73
     4
  0
VERTEX
  5
E4
  8
0
 62
     9
 10
0.0
 20
0.0
 30
0.0
 70
   128
 71
     5
 72
     7
 73
     6
  0
VERTEX
  5
E5
  8
0
 62
     9
 10
0.0
 20
0.0
 30
0.0
 70
   128
 71
     9
 72
     6
 73
     8
  0
VERTEX
  5
E6
  8
0
 62
     9
 10
0.0
 20
0.0
 30
0.0
 70
   128
 71
    11
 72
     8
 73
    10
  0
VERTEX
  5
E7
  8
0
 62
     9
 10
0.0
 20
0.0
 30
0.0
 70
   128
 71
    13
 72
    10
 73
    12
  0
VERTEX
  5
E8
  8
0
 62
     9
 10
0.0
 20
0.0
 30
0.0
 70
   128
 71
    15
 72
    12
 73
    14
  0
VERTEX
  5
E9
  8
0
 62
     9
 10
0.0
 20
0.0
 30
0.0
 70
   128
 71
    17
 72
    14
 73
    16
  0
VERTEX
  5
EA
  8
0
 62
     9
 10
0.0
 20
0.0
 30
0.0
 70
   128
 71
    19
 72
    16
 73
    18
  0
VERTEX
  5
EB
  8
0
 62
     9
 10
0.0
 20
0.0
 30
0.0
 70
   128
 71
    21
 72
    18
 73
    20
  0
VERTEX
  5
EC
  8
0
 62
     9
 10
0.0
 20
0.0
 30
0.0
 70
   128
 71
    23
 72
    20
 73
    22
  0
VERTEX
  5
ED
  8
0
 62
     9
 10
0.0
 20
0.0
 30
0.0
 70
   128
 71
    25
 72
    22
 73
    24
  0
VERTEX
  5
EE
  8
0
 62
     9
 10
0.0
 20
0.0
 30
0.0
 70
   128
 71
    27
 72
    24
 73
    26
  0
VERTEX
  5
EF
  8
0
 62
     9
 10
0.0
 20
0.0
 30
0.0
 70
   128
 71
    29
 72
    26
 73
    28
  0
VERTEX
  5
F0
  8
0
 62
     9
 10
0.0
 20
0.0
 30
0.0
 70
   128
 71
    31
 72
    28
 73
    30
  0
VERTEX
  5
F1
  8
0
 62
     9
 10
0.0
 20
0.0
 30
0.0
 70
   128
 71
     2
 72
    32
 73
    30
  0
VERTEX
  5
F2
  8
0
 62
     9
 10
0.0
 20
0.0
 30
0.0
 70
   128
 71
     1
 72
    34
 73
    33
  0
VERTEX
  5
F3
  8
0
 62
     9
 10
0.0
 20
0.0
 30
0.0
 70
   128
 71
     7
 72
     4
 73
    33
  0
VERTEX
  5
F4
  8
0
 62
     9
 10
0.0
 20
0.0
 30
0.0
 70
   128
 71
     6
 72
     7
 73
    35
  0
VERTEX
  5
F5
  8
0
 62
     9
 10
0.0
 20
0.0
 30
0.0
 70
   128
 71
     8
 72
     6
 73
    36
  0
VERTEX
  5
F6
  8
0
 62
     9
 10
0.0
 20
0.0
 30
0.0
 70
   128
 71
     8
 72
    38
 73
    37
  0
VERTEX
  5
F7
  8
0
 62
     9
 10
0.0
 20
0.0
 30
0.0
 70
   128
 71
    12
 72
    10
 73
    37
  0
VERTEX
  5
F8
  8
0
 62
     9
 10
0.0
 20
0.0
 30
0.0
 70
   128
 71
    14
 72
    12
 73
    39
  0
VERTEX
  5
F9
  8
0
 62
     9
 10
0.0
 20
0.0
 30
0.0
 70
   128
 71
    14
 72
    41
 73
    40
  0
VERTEX
  5
FA
  8
0
 62
     9
 10
0.0
 20
0.0
 30
0.0
 70
   128
 71
    16
 72
    40
 73
    42
  0
VERTEX
  5
FB
  8
0
 62
     9
 10
0.0
 20
0.0
 30
0.0
 70
   128
 71
    18
 72
    42
 73
    43
  0
VERTEX
  5
FC
  8
0
 62
     9
 10
0.0
 20
0.0
 30
0.0
 70
   128
 71
    20
 72
    43
 73
    44
  0
VERTEX
  5
FD
  8
0
 62
     9
 10
0.0
 20
0.0
 30
0.0
 70
   128
 71
    22
 72
    44
 73
    45
  0
VERTEX
  5
FE
  8
0
 62
     9
 10
0.0
 20
0.0
 30
0.0
 70
   128
 71
    24
 72
    45
 73
    46
  0
VERTEX
  5
FF
  8
0
 62
     9
 10
0.0
 20
0.0
 30
0.0
 70
   128
 71
    26
 72
    46
 73
    47
  0
VERTEX
  5
100
  8
0
 62
     9
 10
0.0
 20
0.0
 30
0.0
 70
   128
 71
    28
 72
    47
 73
    48
  0
VERTEX
  5
101
  8
0
 62
     9
 10
0.0
 20
0.0
 30
0.0
 70
   128
 71
     1
 72
    30
 73
    48
  0
VERTEX
  5
102
  8
0
 62
     9
 10
0.0
 20
0.0
 30
0.0
 70
   128
 71
    48
 72
    34
 73
     1
  0
VERTEX
  5
103
  8
0
 62
     9
 10
0.0
 20
0.0
 30
0.0
 70
   128
 71
    48
 72
    30
 73
    28
  0
VERTEX
  5
104
  8
0
 62
     9
 10
0.0
 20
0.0
 30
0.0
 70
   128
 71
    47
 72
    28
 73
    26
  0
VERTEX
  5
105
  8
0
 62
     9
 10
0.0
 20
0.0
 30
0.0
 70
   128
 71
    46
 72
    26
 73
    24
  0
VERTEX
  5
106
  8
0
 62
     9
 10
0.0
 20
0.0
 30
0.0
 70
   128
 71
    45
 72
    24
 73
    22
  0
VERTEX
  5
107
  8
0
 62
     9
 10
0.0
 20
0.0
 30
0.0
 70
   128
 71
    44
 72
    22
 73
    20
  0
VERTEX
  5
108
  8
0
 62
     9
 10
0.0
 20
0.0
 30
0.0
 70
   128
 71
    43
 72
    20
 73
    18
  0
VERTEX
  5
109
  8
0
 62
     9
 10
0.0
 20
0.0
 30
0.0
 70
   128
 71
    42
 72
    18
 73
    16
  0
VERTEX
  5
10A
  8
0
 62
     9
 10
0.0
 20
0.0
 30
0.0
 70
   128
 71
    40
 72
    16
 73
    14
  0
VERTEX
  5
10B
  8
0
 62
     9
 10
0.0
 20
0.0
 30
0.0
 70
   128
 71
    39
 72
    41
 73
    14
  0
VERTEX
  5
10C
  8
0
 62
     9
 10
0.0
 20
0.0
 30
0.0
 70
   128
 71
    37
 72
    39
 73
    12
  0
VERTEX
  5
10D
  8
0
 62
     9
 10
0.0
 20
0.0
 30
0.0
 70
   128
 71
    37
 72
    10
 73
     8
  0
VERTEX
  5
10E
  8
0
 62
     9
 10
0.0
 20
0.0
 30
0.0
 70
   128
 71
    36
 72
    38
 73
     8
  0
VERTEX
  5
10F
  8
0
 62
     9
 10
0.0
 20
0.0
 30
0.0
 70
   128
 71
    35
 72
    36
 73
     6
  0
VERTEX
  5
110
  8
0
 62
     9
 10
0.0
 20
0.0
 30
0.0
 70
   128
 71
    33
 72
    35
 73
     7
  0
VERTEX
  5
111
  8
0
 62
     9
 10
0.0
 20
0.0
 30
0.0
 70
   128
 71
    33
 72
     4
 73
     1
  0
VERTEX
  5
112
  8
0
 62
     9
 10
0.0
 20
0.0
 30
0.0
 70
   128
 71
    30
 72
     1
 73
     2
  0
VERTEX
  5
113
  8
0
 62
     9
 10
0.0
 20
0.0
 30
0.0
 70
   128
 71
    30
 72
    32
 73
    31
  0
VERTEX
  5
114
  8
0
 62
     9
 10
0.0
 20
0.0
 30
0.0
 70
   128
 71
    28
 72
    31
 73
    29
  0
VERTEX
  5
115
  8
0
 62
     9
 10
0.0
 20
0.0
 30
0.0
 70
   128
 71
    26
 72
    29
 73
    27
  0
VERTEX
  5
116
  8
0
 62
     9
 10
0.0
 20
0.0
 30
0.0
 70
   128
 71
    24
 72
    27
 73
    25
  0
VERTEX
  5
117
  8
0
 62
     9
 10
0.0
 20
0.0
 30
0.0
 70
   128
 71
    22
 72
    25
 73
    23
  0
VERTEX
  5
118
  8
0
 62
     9
 10
0.0
 20
0.0
 30
0.0
 70
   128
 71
    20
 72
    23
 73
    21
  0
VERTEX
  5
119
  8
0
 62
     9
 10
0.0
 20
0.0
 30
0.0
 70
   128
 71
    18
 72
    21
 73
    19
  0
VERTEX
  5
11A
  8
0
 62
     9
 10
0.0
 20
0.0
 30
0.0
 70
   128
 71
    16
 72
    19
 73
    17
  0
VERTEX
  5
11B
  8
0
 62
     9
 10
0.0
 20
0.0
 30
0.0
 70
   128
 71
    14
 72
    17
 73
    15
  0
VERTEX
  5
11C
  8
0
 62
     9
 10
0.0
 20
0.0
 30
0.0
 70
   128
 71
    12
 72
    15
 73
    13
  0
VERTEX
  5
11D
  8
0
 62
     9
 10
0.0
 20
0.0
 30
0.0
 70
   128
 71
    10
 72
    13
 73
    11
  0
VERTEX
  5
11E
  8
0
 62
     9
 10
0.0
 20
0.0
 30
0.0
 70
   128
 71
     8
 72
    11
 73
     9
  0
VERTEX
  5
11F
  8
0
 62
     9
 10
0.0
 20
0.0
 30
0.0
 70
   128
 71
     6
 72
     9
 73
     5
  0
VERTEX
  5
120
  8
0
 62
     9
 10
0.0
 20
0.0
 30
0.0
 70
   128
 71
     4
 72
     7
 73
     5
  0
VERTEX
  5
121
  8
0
 62
     9
 10
0.0
 20
0.0
 30
0.0
 70
   128
 71
     1
 72
     4
 73
     3
  0
SEQEND
  5
122
  8
0
 62
     9
  0
ENDBLK
  5
125
  8
0
  0
BLOCK
  8
0
  2
E3_NODE_3_
 70
     0
 10
0.0
 20
0.0
 30
0.0
  3
E3_NODE_3_
  1

  0
POLYLINE
  5
127
  8
0
 62
     9
 66
     1
 10
0.0
 20
0.0
 30
0.0
 70
    64
 71
    16
 72
    14
  0
VERTEX
  5
128
  8
0
 10
59.0
 20
-52.5
 30
9.0
 70
   192
  0
VERTEX
  5
129
  8
0
 10
59.0
 20
0.0
 30
-43.5
 70
   192
  0
VERTEX
  5
12A
  8
0
 10
59.0
 20
-20.09099960327148
 30
-39.50400161743164
 70
   192
  0
VERTEX
  5
12B
  8
0
 10
59.0
 20
0.0
 30
61.5
 70
   192
  0
VERTEX
  5
12C
  8
0
 10
59.0
 20
37.12300109863281
 30
46.12300109863281
 70
   192
  0
VERTEX
  5
12D
  8
0
 10
59.0
 20
48.50400161743164
 30
29.09099960327148
 70
   192
  0
VERTEX
  5
12E
  8
0
 10
59.0
 20
52.5
 30
9.0
 70
   192
  0
VERTEX
  5
12F
  8
0
 10
59.0
 20
-37.12300109863281
 30
46.12300109863281
 70
   192
  0
VERTEX
  5
130
  8
0
 10
59.0
 20
-20.09099960327148
 30
57.50400161743164
 70
   192
  0
VERTEX
  5
131
  8
0
 10
59.0
 20
-37.12300109863281
 30
-28.12299919128418
 70
   192
  0
VERTEX
  5
132
  8
0
 10
59.0
 20
37.12300109863281
 30
-28.12299919128418
 70
   192
  0
VERTEX
  5
133
  8
0
 10
59.0
 20
20.09099960327148
 30
-39.50400161743164
 70
   192
  0
VERTEX
  5
134
  8
0
 10
59.0
 20
20.09099960327148
 30
57.50400161743164
 70
   192
  0
VERTEX
  5
135
  8
0
 10
59.0
 20
-48.50400161743164
 30
29.09099960327148
 70
   192
  0
VERTEX
  5
136
  8
0
 10
59.0
 20
48.50400161743164
 30
-11.09099960327148
 70
   192
  0
VERTEX
  5
137
  8
0
 10
59.0
 20
-48.50400161743164
 30
-11.09099960327148
 70
   192
  0
VERTEX
  5
138
  8
0
 62
     9
 10
0.0
 20
0.0
 30
0.0
 70
   128
 71
     3
 72
     2
 73
     1
  0
VERTEX
  5
139
  8
0
 62
     9
 10
0.0
 20
0.0
 30
0.0
 70
   128
 71
     6
 72
     5
 73
     4
  0
VERTEX
  5
13A
  8
0
 62
     9
 10
0.0
 20
0.0
 30
0.0
 70
   128
 71
     9
 72
     8
 73
     7
  0
VERTEX
  5
13B
  8
0
 62
     9
 10
0.0
 20
0.0
 30
0.0
 70
   128
 71
     1
 72
    10
 73
     3
  0
VERTEX
  5
13C
  8
0
 62
     9
 10
0.0
 20
0.0
 30
0.0
 70
   128
 71
    12
 72
    11
 73
     1
  0
VERTEX
  5
13D
  8
0
 62
     9
 10
0.0
 20
0.0
 30
0.0
 70
   128
 71
     5
 72
    13
 73
     4
  0
VERTEX
  5
13E
  8
0
 62
     9
 10
0.0
 20
0.0
 30
0.0
 70
   128
 71
     8
 72
    14
 73
     7
  0
VERTEX
  5
13F
  8
0
 62
     9
 10
0.0
 20
0.0
 30
0.0
 70
   128
 71
     1
 72
     2
 73
    12
  0
VERTEX
  5
140
  8
0
 62
     9
 10
0.0
 20
0.0
 30
0.0
 70
   128
 71
    15
 72
     7
 73
     1
  0
VERTEX
  5
141
  8
0
 62
     9
 10
0.0
 20
0.0
 30
0.0
 70
   128
 71
     7
 72
     4
 73
     9
  0
VERTEX
  5
142
  8
0
 62
     9
 10
0.0
 20
0.0
 30
0.0
 70
   128
 71
     1
 72
    11
 73
    15
  0
VERTEX
  5
143
  8
0
 62
     9
 10
0.0
 20
0.0
 30
0.0
 70
   128
 71
    14
 72
     1
 73
     7
  0
VERTEX
  5
144
  8
0
 62
     9
 10
0.0
 20
0.0
 30
0.0
 70
   128
 71
     4
 72
     7
 73
     6
  0
VERTEX
  5
145
  8
0
 62
     9
 10
0.0
 20
0.0
 30
0.0
 70
   128
 71
     1
 72
    16
 73
    10
  0
SEQEND
  5
146
  8
0
 62
     9
  0
ENDBLK
  5
149
  8
0
  0
BLOCK
  8
0
  2
E3_NODE_4_
 70
     0
 10
0.0
 20
0.0
 30
0.0
  3
E3_NODE_4_
  1

  0
POLYLINE
  5
14B
  8
0
 62
     9
 66
     1
 10
0.0
 20
0.0
 30
0.0
 70
    64
 71
    32
 72
    32
  0
VERTEX
  5
14C
  8
0
 10
59.0
 20
48.50400161743164
 30
29.09099960327148
 70
   192
  0
VERTEX
  5
14D
  8
0
 10
69.0
 20
48.50400161743164
 30
29.09099960327148
 70
   192
  0
VERTEX
  5
14E
  8
0
 10
69.0
 20
52.5
 30
9.0
 70
   192
  0
VERTEX
  5
14F
  8
0
 10
59.0
 20
37.12300109863281
 30
46.12300109863281
 70
   192
  0
VERTEX
  5
150
  8
0
 10
69.0
 20
37.12300109863281
 30
46.12300109863281
 70
   192
  0
VERTEX
  5
151
  8
0
 10
59.0
 20
20.09099960327148
 30
57.50400161743164
 70
   192
  0
VERTEX
  5
152
  8
0
 10
59.0
 20
0.0
 30
61.5
 70
   192
  0
VERTEX
  5
153
  8
0
 10
69.0
 20
0.0
 30
61.5
 70
   192
  0
VERTEX
  5
154
  8
0
 10
69.0
 20
20.09099960327148
 30
57.50400161743164
 70
   192
  0
VERTEX
  5
155
  8
0
 10
59.0
 20
-20.09099960327148
 30
57.50400161743164
 70
   192
  0
VERTEX
  5
156
  8
0
 10
69.0
 20
-20.09099960327148
 30
57.50400161743164
 70
   192
  0
VERTEX
  5
157
  8
0
 10
59.0
 20
-37.12300109863281
 30
46.12300109863281
 70
   192
  0
VERTEX
  5
158
  8
0
 10
59.0
 20
-48.50400161743164
 30
29.09099960327148
 70
   192
  0
VERTEX
  5
159
  8
0
 10
69.0
 20
-48.50400161743164
 30
29.09099960327148
 70
   192
  0
VERTEX
  5
15A
  8
0
 10
69.0
 20
-37.12300109863281
 30
46.12300109863281
 70
   192
  0
VERTEX
  5
15B
  8
0
 10
59.0
 20
-52.5
 30
9.0
 70
   192
  0
VERTEX
  5
15C
  8
0
 10
69.0
 20
-52.5
 30
9.0
 70
   192
  0
VERTEX
  5
15D
  8
0
 10
59.0
 20
-48.50400161743164
 30
-11.09099960327148
 70
   192
  0
VERTEX
  5
15E
  8
0
 10
59.0
 20
-37.12300109863281
 30
-28.12299919128418
 70
   192
  0
VERTEX
  5
15F
  8
0
 10
69.0
 20
-37.12300109863281
 30
-28.12299919128418
 70
   192
  0
VERTEX
  5
160
  8
0
 10
69.0
 20
-48.50400161743164
 30
-11.09099960327148
 70
   192
  0
VERTEX
  5
161
  8
0
 10
59.0
 20
-20.09099960327148
 30
-39.50400161743164
 70
   192
  0
VERTEX
  5
162
  8
0
 10
69.0
 20
-20.09099960327148
 30
-39.50400161743164
 70
   192
  0
VERTEX
  5
163
  8
0
 10
59.0
 20
0.0
 30
-43.5
 70
   192
  0
VERTEX
  5
164
  8
0
 10
69.0
 20
0.0
 30
-43.5
 70
   192
  0
VERTEX
  5
165
  8
0
 10
59.0
 20
20.09099960327148
 30
-39.50400161743164
 70
   192
  0
VERTEX
  5
166
  8
0
 10
69.0
 20
20.09099960327148
 30
-39.50400161743164
 70
   192
  0
VERTEX
  5
167
  8
0
 10
59.0
 20
37.12300109863281
 30
-28.12299919128418
 70
   192
  0
VERTEX
  5
168
  8
0
 10
69.0
 20
37.12300109863281
 30
-28.12299919128418
 70
   192
  0
VERTEX
  5
169
  8
0
 10
59.0
 20
48.50400161743164
 30
-11.09099960327148
 70
   192
  0
VERTEX
  5
16A
  8
0
 10
69.0
 20
48.50400161743164
 30
-11.09099960327148
 70
   192
  0
VERTEX
  5
16B
  8
0
 10
59.0
 20
52.5
 30
9.0
 70
   192
  0
VERTEX
  5
16C
  8
0
 62
     9
 10
0.0
 20
0.0
 30
0.0
 70
   128
 71
     3
 72
     2
 73
     1
  0
VERTEX
  5
16D
  8
0
 62
     9
 10
0.0
 20
0.0
 30
0.0
 70
   128
 71
     5
 72
     4
 73
     1
  0
VERTEX
  5
16E
  8
0
 62
     9
 10
0.0
 20
0.0
 30
0.0
 70
   128
 71
     6
 72
     4
 73
     5
  0
VERTEX
  5
16F
  8
0
 62
     9
 10
0.0
 20
0.0
 30
0.0
 70
   128
 71
     9
 72
     8
 73
     7
  0
VERTEX
  5
170
  8
0
 62
     9
 10
0.0
 20
0.0
 30
0.0
 70
   128
 71
     8
 72
    11
 73
    10
  0
VERTEX
  5
171
  8
0
 62
     9
 10
0.0
 20
0.0
 30
0.0
 70
   128
 71
    12
 72
    10
 73
    11
  0
VERTEX
  5
172
  8
0
 62
     9
 10
0.0
 20
0.0
 30
0.0
 70
   128
 71
    15
 72
    14
 73
    13
  0
VERTEX
  5
173
  8
0
 62
     9
 10
0.0
 20
0.0
 30
0.0
 70
   128
 71
    14
 72
    17
 73
    16
  0
VERTEX
  5
174
  8
0
 62
     9
 10
0.0
 20
0.0
 30
0.0
 70
   128
 71
    18
 72
    16
 73
    17
  0
VERTEX
  5
175
  8
0
 62
     9
 10
0.0
 20
0.0
 30
0.0
 70
   128
 71
    21
 72
    20
 73
    19
  0
VERTEX
  5
176
  8
0
 62
     9
 10
0.0
 20
0.0
 30
0.0
 70
   128
 71
    20
 72
    23
 73
    22
  0
VERTEX
  5
177
  8
0
 62
     9
 10
0.0
 20
0.0
 30
0.0
 70
   128
 71
    25
 72
    24
 73
    22
  0
VERTEX
  5
178
  8
0
 62
     9
 10
0.0
 20
0.0
 30
0.0
 70
   128
 71
    25
 72
    27
 73
    26
  0
VERTEX
  5
179
  8
0
 62
     9
 10
0.0
 20
0.0
 30
0.0
 70
   128
 71
    27
 72
    29
 73
    28
  0
VERTEX
  5
17A
  8
0
 62
     9
 10
0.0
 20
0.0
 30
0.0
 70
   128
 71
    31
 72
    30
 73
    28
  0
VERTEX
  5
17B
  8
0
 62
     9
 10
0.0
 20
0.0
 30
0.0
 70
   128
 71
    30
 72
    31
 73
     3
  0
VERTEX
  5
17C
  8
0
 62
     9
 10
0.0
 20
0.0
 30
0.0
 70
   128
 71
     3
 72
    32
 73
    30
  0
VERTEX
  5
17D
  8
0
 62
     9
 10
0.0
 20
0.0
 30
0.0
 70
   128
 71
    28
 72
    29
 73
    31
  0
VERTEX
  5
17E
  8
0
 62
     9
 10
0.0
 20
0.0
 30
0.0
 70
   128
 71
    28
 72
    26
 73
    27
  0
VERTEX
  5
17F
  8
0
 62
     9
 10
0.0
 20
0.0
 30
0.0
 70
   128
 71
    26
 72
    24
 73
    25
  0
VERTEX
  5
180
  8
0
 62
     9
 10
0.0
 20
0.0
 30
0.0
 70
   128
 71
    22
 72
    23
 73
    25
  0
VERTEX
  5
181
  8
0
 62
     9
 10
0.0
 20
0.0
 30
0.0
 70
   128
 71
    22
 72
    19
 73
    20
  0
VERTEX
  5
182
  8
0
 62
     9
 10
0.0
 20
0.0
 30
0.0
 70
   128
 71
    19
 72
    18
 73
    21
  0
VERTEX
  5
183
  8
0
 62
     9
 10
0.0
 20
0.0
 30
0.0
 70
   128
 71
    17
 72
    21
 73
    18
  0
VERTEX
  5
184
  8
0
 62
     9
 10
0.0
 20
0.0
 30
0.0
 70
   128
 71
    16
 72
    13
 73
    14
  0
VERTEX
  5
185
  8
0
 62
     9
 10
0.0
 20
0.0
 30
0.0
 70
   128
 71
    13
 72
    12
 73
    15
  0
VERTEX
  5
186
  8
0
 62
     9
 10
0.0
 20
0.0
 30
0.0
 70
   128
 71
    11
 72
    15
 73
    12
  0
VERTEX
  5
187
  8
0
 62
     9
 10
0.0
 20
0.0
 30
0.0
 70
   128
 71
    10
 72
     7
 73
     8
  0
VERTEX
  5
188
  8
0
 62
     9
 10
0.0
 20
0.0
 30
0.0
 70
   128
 71
     7
 72
     6
 73
     9
  0
VERTEX
  5
189
  8
0
 62
     9
 10
0.0
 20
0.0
 30
0.0
 70
   128
 71
     5
 72
     9
 73
     6
  0
VERTEX
  5
18A
  8
0
 62
     9
 10
0.0
 20
0.0
 30
0.0
 70
   128
 71
     1
 72
     2
 73
     5
  0
VERTEX
  5
18B
  8
0
 62
     9
 10
0.0
 20
0.0
 30
0.0
 70
   128
 71
     1
 72
    32
 73
     3
  0
SEQEND
  5
18C
  8
0
 62
     9
  0
ENDBLK
  5
18F
  8
0
  0
BLOCK
  8
0
  2
E3_NODE_5_
 70
     0
 10
0.0
 20
0.0
 30
0.0
  3
E3_NODE_5_
  1

  0
POLYLINE
  5
191
  8
0
 62
     9
 66
     1
 10
0.0
 20
0.0
 30
0.0
 70
    64
 71
    16
 72
    14
  0
VERTEX
  5
192
  8
0
 10
69.0
 20
0.0
 30
61.5
 70
   192
  0
VERTEX
  5
193
  8
0
 10
69.0
 20
-20.09099960327148
 30
57.50400161743164
 70
   192
  0
VERTEX
  5
194
  8
0
 10
69.0
 20
-37.12300109863281
 30
46.12300109863281
 70
   192
  0
VERTEX
  5
195
  8
0
 10
69.0
 20
-52.5
 30
9.0
 70
   192
  0
VERTEX
  5
196
  8
0
 10
69.0
 20
37.12300109863281
 30
-28.12299919128418
 70
   192
  0
VERTEX
  5
197
  8
0
 10
69.0
 20
48.50400161743164
 30
-11.09099960327148
 70
   192
  0
VERTEX
  5
198
  8
0
 10
69.0
 20
-48.50400161743164
 30
29.09099960327148
 70
   192
  0
VERTEX
  5
199
  8
0
 10
69.0
 20
37.12300109863281
 30
46.12300109863281
 70
   192
  0
VERTEX
  5
19A
  8
0
 10
69.0
 20
20.09099960327148
 30
57.50400161743164
 70
   192
  0
VERTEX
  5
19B
  8
0
 10
69.0
 20
20.09099960327148
 30
-39.50400161743164
 70
   192
  0
VERTEX
  5
19C
  8
0
 10
69.0
 20
0.0
 30
-43.5
 70
   192
  0
VERTEX
  5
19D
  8
0
 10
69.0
 20
-48.50400161743164
 30
-11.09099960327148
 70
   192
  0
VERTEX
  5
19E
  8
0
 10
69.0
 20
-37.12300109863281
 30
-28.12299919128418
 70
   192
  0
VERTEX
  5
19F
  8
0
 10
69.0
 20
52.5
 30
9.0
 70
   192
  0
VERTEX
  5
1A0
  8
0
 10
69.0
 20
48.50400161743164
 30
29.09099960327148
 70
   192
  0
VERTEX
  5
1A1
  8
0
 10
69.0
 20
-20.09099960327148
 30
-39.50400161743164
 70
   192
  0
VERTEX
  5
1A2
  8
0
 62
     9
 10
0.0
 20
0.0
 30
0.0
 70
   128
 71
     3
 72
     2
 73
     1
  0
VERTEX
  5
1A3
  8
0
 62
     9
 10
0.0
 20
0.0
 30
0.0
 70
   128
 71
     6
 72
     5
 73
     4
  0
VERTEX
  5
1A4
  8
0
 62
     9
 10
0.0
 20
0.0
 30
0.0
 70
   128
 71
     1
 72
     7
 73
     3
  0
VERTEX
  5
1A5
  8
0
 62
     9
 10
0.0
 20
0.0
 30
0.0
 70
   128
 71
     9
 72
     8
 73
     4
  0
VERTEX
  5
1A6
  8
0
 62
     9
 10
0.0
 20
0.0
 30
0.0
 70
   128
 71
     5
 72
    10
 73
     4
  0
VERTEX
  5
1A7
  8
0
 62
     9
 10
0.0
 20
0.0
 30
0.0
 70
   128
 71
    13
 72
    12
 73
    11
  0
VERTEX
  5
1A8
  8
0
 62
     9
 10
0.0
 20
0.0
 30
0.0
 70
   128
 71
     4
 72
     1
 73
     9
  0
VERTEX
  5
1A9
  8
0
 62
     9
 10
0.0
 20
0.0
 30
0.0
 70
   128
 71
    15
 72
    14
 73
     4
  0
VERTEX
  5
1AA
  8
0
 62
     9
 10
0.0
 20
0.0
 30
0.0
 70
   128
 71
    10
 72
    11
 73
     4
  0
VERTEX
  5
1AB
  8
0
 62
     9
 10
0.0
 20
0.0
 30
0.0
 70
   128
 71
    12
 72
     4
 73
    11
  0
VERTEX
  5
1AC
  8
0
 62
     9
 10
0.0
 20
0.0
 30
0.0
 70
   128
 71
     4
 72
     8
 73
    15
  0
VERTEX
  5
1AD
  8
0
 62
     9
 10
0.0
 20
0.0
 30
0.0
 70
   128
 71
    11
 72
    16
 73
    13
  0
VERTEX
  5
1AE
  8
0
 62
     9
 10
0.0
 20
0.0
 30
0.0
 70
   128
 71
     4
 72
    14
 73
     6
  0
VERTEX
  5
1AF
  8
0
 62
     9
 10
0.0
 20
0.0
 30
0.0
 70
   128
 71
     1
 72
     4
 73
     7
  0
SEQEND
  5
1B0
  8
0
 62
     9
  0
ENDBLK
  5
1B3
  8
0
  0
BLOCK
  8
0
  2
E3_NODE_6_
 70
     0
 10
0.0
 20
0.0
 30
0.0
  3
E3_NODE_6_
  1

  0
POLYLINE
  5
1B5
  8
0
 62
     9
 66
     1
 10
0.0
 20
0.0
 30
0.0
 70
    64
 71
    24
 72
    24
  0
VERTEX
  5
1B6
  8
0
 10
69.0
 20
-25.98100090026855
 30
-6.0
 70
   192
  0
VERTEX
  5
1B7
  8
0
 10
69.30000305175781
 20
-25.98100090026855
 30
-6.0
 70
   192
  0
VERTEX
  5
1B8
  8
0
 10
69.30000305175781
 20
-30.0
 30
9.0
 70
   192
  0
VERTEX
  5
1B9
  8
0
 10
69.0
 20
-15.0
 30
-16.98100090026855
 70
   192
  0
VERTEX
  5
1BA
  8
0
 10
69.30000305175781
 20
-15.0
 30
-16.98100090026855
 70
   192
  0
VERTEX
  5
1BB
  8
0
 10
69.0
 20
0.0
 30
-21.0
 70
   192
  0
VERTEX
  5
1BC
  8
0
 10
69.30000305175781
 20
0.0
 30
-21.0
 70
   192
  0
VERTEX
  5
1BD
  8
0
 10
69.0
 20
15.0
 30
-16.98100090026855
 70
   192
  0
VERTEX
  5
1BE
  8
0
 10
69.30000305175781
 20
15.0
 30
-16.98100090026855
 70
   192
  0
VERTEX
  5
1BF
  8
0
 10
69.0
 20
25.98100090026855
 30
-6.0
 70
   192
  0
VERTEX
  5
1C0
  8
0
 10
69.30000305175781
 20
25.98100090026855
 30
-6.0
 70
   192
  0
VERTEX
  5
1C1
  8
0
 10
69.0
 20
30.0
 30
9.0
 70
   192
  0
VERTEX
  5
1C2
  8
0
 10
69.30000305175781
 20
30.0
 30
9.0
 70
   192
  0
VERTEX
  5
1C3
  8
0
 10
69.30000305175781
 20
25.98100090026855
 30
24.0
 70
   192
  0
VERTEX
  5
1C4
  8
0
 10
69.0
 20
15.0
 30
34.98099899291992
 70
   192
  0
VERTEX
  5
1C5
  8
0
 10
69.30000305175781
 20
15.0
 30
34.98099899291992
 70
   192
  0
VERTEX
  5
1C6
  8
0
 10
69.0
 20
0.0
 30
39.0
 70
   192
  0
VERTEX
  5
1C7
  8
0
 10
69.30000305175781
 20
0.0
 30
39.0
 70
   192
  0
VERTEX
  5
1C8
  8
0
 10
69.0
 20
-15.0
 30
34.98099899291992
 70
   192
  0
VERTEX
  5
1C9
  8
0
 10
69.30000305175781
 20
-15.0
 30
34.98099899291992
 70
   192
  0
VERTEX
  5
1CA
  8
0
 10
69.30000305175781
 20
-25.98100090026855
 30
24.0
 70
   192
  0
VERTEX
  5
1CB
  8
0
 10
69.0
 20
-30.0
 30
9.0
 70
   192
  0
VERTEX
  5
1CC
  8
0
 10
69.0
 20
-25.98100090026855
 30
24.0
 70
   192
  0
VERTEX
  5
1CD
  8
0
 10
69.0
 20
25.98100090026855
 30
24.0
 70
   192
  0
VERTEX
  5
1CE
  8
0
 62
     9
 10
0.0
 20
0.0
 30
0.0
 70
   128
 71
     3
 72
     2
 73
     1
  0
VERTEX
  5
1CF
  8
0
 62
     9
 10
0.0
 20
0.0
 30
0.0
 70
   128
 71
     2
 72
     5
 73
     4
  0
VERTEX
  5
1D0
  8
0
 62
     9
 10
0.0
 20
0.0
 30
0.0
 70
   128
 71
     5
 72
     7
 73
     6
  0
VERTEX
  5
1D1
  8
0
 62
     9
 10
0.0
 20
0.0
 30
0.0
 70
   128
 71
     7
 72
     9
 73
     8
  0
VERTEX
  5
1D2
  8
0
 62
     9
 10
0.0
 20
0.0
 30
0.0
 70
   128
 71
     9
 72
    11
 73
    10
  0
VERTEX
  5
1D3
  8
0
 62
     9
 10
0.0
 20
0.0
 30
0.0
 70
   128
 71
    11
 72
    13
 73
    12
  0
VERTEX
  5
1D4
  8
0
 62
     9
 10
0.0
 20
0.0
 30
0.0
 70
   128
 71
    12
 72
    13
 73
    14
  0
VERTEX
  5
1D5
  8
0
 62
     9
 10
0.0
 20
0.0
 30
0.0
 70
   128
 71
    14
 72
    16
 73
    15
  0
VERTEX
  5
1D6
  8
0
 62
     9
 10
0.0
 20
0.0
 30
0.0
 70
   128
 71
    16
 72
    18
 73
    17
  0
VERTEX
  5
1D7
  8
0
 62
     9
 10
0.0
 20
0.0
 30
0.0
 70
   128
 71
    18
 72
    20
 73
    19
  0
VERTEX
  5
1D8
  8
0
 62
     9
 10
0.0
 20
0.0
 30
0.0
 70
   128
 71
    19
 72
    20
 73
    21
  0
VERTEX
  5
1D9
  8
0
 62
     9
 10
0.0
 20
0.0
 30
0.0
 70
   128
 71
    21
 72
     3
 73
    22
  0
VERTEX
  5
1DA
  8
0
 62
     9
 10
0.0
 20
0.0
 30
0.0
 70
   128
 71
    22
 72
    23
 73
    21
  0
VERTEX
  5
1DB
  8
0
 62
     9
 10
0.0
 20
0.0
 30
0.0
 70
   128
 71
    21
 72
    23
 73
    19
  0
VERTEX
  5
1DC
  8
0
 62
     9
 10
0.0
 20
0.0
 30
0.0
 70
   128
 71
    19
 72
    17
 73
    18
  0
VERTEX
  5
1DD
  8
0
 62
     9
 10
0.0
 20
0.0
 30
0.0
 70
   128
 71
    17
 72
    15
 73
    16
  0
VERTEX
  5
1DE
  8
0
 62
     9
 10
0.0
 20
0.0
 30
0.0
 70
   128
 71
    15
 72
    24
 73
    14
  0
VERTEX
  5
1DF
  8
0
 62
     9
 10
0.0
 20
0.0
 30
0.0
 70
   128
 71
    14
 72
    24
 73
    12
  0
VERTEX
  5
1E0
  8
0
 62
     9
 10
0.0
 20
0.0
 30
0.0
 70
   128
 71
    12
 72
    10
 73
    11
  0
VERTEX
  5
1E1
  8
0
 62
     9
 10
0.0
 20
0.0
 30
0.0
 70
   128
 71
    10
 72
     8
 73
     9
  0
VERTEX
  5
1E2
  8
0
 62
     9
 10
0.0
 20
0.0
 30
0.0
 70
   128
 71
     8
 72
     6
 73
     7
  0
VERTEX
  5
1E3
  8
0
 62
     9
 10
0.0
 20
0.0
 30
0.0
 70
   128
 71
     6
 72
     4
 73
     5
  0
VERTEX
  5
1E4
  8
0
 62
     9
 10
0.0
 20
0.0
 30
0.0
 70
   128
 71
     4
 72
     1
 73
     2
  0
VERTEX
  5
1E5
  8
0
 62
     9
 10
0.0
 20
0.0
 30
0.0
 70
   128
 71
     1
 72
    22
 73
     3
  0
SEQEND
  5
1E6
  8
0
 62
     9
  0
ENDBLK
  5
1E9
  8
0
  0
BLOCK
  8
0
  2
E3_NODE_7_
 70
     0
 10
0.0
 20
0.0
 30
0.0
  3
E3_NODE_7_
  1

  0
POLYLINE
  5
1EB
  8
0
 62
     9
 66
     1
 10
0.0
 20
0.0
 30
0.0
 70
    64
 71
    24
 72
    24
  0
VERTEX
  5
1EC
  8
0
 10
69.30000305175781
 20
30.0
 30
9.0
 70
   192
  0
VERTEX
  5
1ED
  8
0
 10
71.33599853515625
 20
24.54999923706055
 30
9.0
 70
   192
  0
VERTEX
  5
1EE
  8
0
 10
71.33599853515625
 20
21.26099967956543
 30
-3.275000095367432
 70
   192
  0
VERTEX
  5
1EF
  8
0
 10
69.30000305175781
 20
15.0
 30
-16.98100090026855
 70
   192
  0
VERTEX
  5
1F0
  8
0
 10
69.30000305175781
 20
25.98100090026855
 30
-6.0
 70
   192
  0
VERTEX
  5
1F1
  8
0
 10
69.30000305175781
 20
0.0
 30
-21.0
 70
   192
  0
VERTEX
  5
1F2
  8
0
 10
71.33599853515625
 20
12.27499961853027
 30
-12.26099967956543
 70
   192
  0
VERTEX
  5
1F3
  8
0
 10
69.30000305175781
 20
-15.0
 30
-16.98100090026855
 70
   192
  0
VERTEX
  5
1F4
  8
0
 10
71.33599853515625
 20
0.0
 30
-15.55000019073486
 70
   192
  0
VERTEX
  5
1F5
  8
0
 10
69.30000305175781
 20
-25.98100090026855
 30
-6.0
 70
   192
  0
VERTEX
  5
1F6
  8
0
 10
71.33599853515625
 20
-12.27499961853027
 30
-12.26099967956543
 70
   192
  0
VERTEX
  5
1F7
  8
0
 10
69.30000305175781
 20
-30.0
 30
9.0
 70
   192
  0
VERTEX
  5
1F8
  8
0
 10
71.33599853515625
 20
-21.26099967956543
 30
-3.275000095367432
 70
   192
  0
VERTEX
  5
1F9
  8
0
 10
69.30000305175781
 20
-25.98100090026855
 30
24.0
 70
   192
  0
VERTEX
  5
1FA
  8
0
 10
71.33599853515625
 20
-24.54999923706055
 30
9.0
 70
   192
  0
VERTEX
  5
1FB
  8
0
 10
69.30000305175781
 20
-15.0
 30
34.98099899291992
 70
   192
  0
VERTEX
  5
1FC
  8
0
 10
71.33599853515625
 20
-21.26099967956543
 30
21.27499961853027
 70
   192
  0
VERTEX
  5
1FD
  8
0
 10
71.33599853515625
 20
-12.27499961853027
 30
30.26099967956543
 70
   192
  0
VERTEX
  5
1FE
  8
0
 10
71.33599853515625
 20
0.0
 30
33.54999923706055
 70
   192
  0
VERTEX
  5
1FF
  8
0
 10
69.30000305175781
 20
0.0
 30
39.0
 70
   192
  0
VERTEX
  5
200
  8
0
 10
71.33599853515625
 20
12.27499961853027
 30
30.26099967956543
 70
   192
  0
VERTEX
  5
201
  8
0
 10
69.30000305175781
 20
15.0
 30
34.98099899291992
 70
   192
  0
VERTEX
  5
202
  8
0
 10
71.33599853515625
 20
21.26099967956543
 30
21.27499961853027
 70
   192
  0
VERTEX
  5
203
  8
0
 10
69.30000305175781
 20
25.98100090026855
 30
24.0
 70
   192
  0
VERTEX
  5
204
  8
0
 62
     9
 10
0.0
 20
0.0
 30
0.0
 70
   128
 71
     3
 72
     2
 73
     1
  0
VERTEX
  5
205
  8
0
 62
     9
 10
0.0
 20
0.0
 30
0.0
 70
   128
 71
     3
 72
     5
 73
     4
  0
VERTEX
  5
206
  8
0
 62
     9
 10
0.0
 20
0.0
 30
0.0
 70
   128
 71
     7
 72
     4
 73
     6
  0
VERTEX
  5
207
  8
0
 62
     9
 10
0.0
 20
0.0
 30
0.0
 70
   128
 71
     9
 72
     6
 73
     8
  0
VERTEX
  5
208
  8
0
 62
     9
 10
0.0
 20
0.0
 30
0.0
 70
   128
 71
    11
 72
     8
 73
    10
  0
VERTEX
  5
209
  8
0
 62
     9
 10
0.0
 20
0.0
 30
0.0
 70
   128
 71
    13
 72
    10
 73
    12
  0
VERTEX
  5
20A
  8
0
 62
     9
 10
0.0
 20
0.0
 30
0.0
 70
   128
 71
    15
 72
    12
 73
    14
  0
VERTEX
  5
20B
  8
0
 62
     9
 10
0.0
 20
0.0
 30
0.0
 70
   128
 71
    17
 72
    14
 73
    16
  0
VERTEX
  5
20C
  8
0
 62
     9
 10
0.0
 20
0.0
 30
0.0
 70
   128
 71
    19
 72
    18
 73
    16
  0
VERTEX
  5
20D
  8
0
 62
     9
 10
0.0
 20
0.0
 30
0.0
 70
   128
 71
    21
 72
    19
 73
    20
  0
VERTEX
  5
20E
  8
0
 62
     9
 10
0.0
 20
0.0
 30
0.0
 70
   128
 71
    23
 72
    21
 73
    22
  0
VERTEX
  5
20F
  8
0
 62
     9
 10
0.0
 20
0.0
 30
0.0
 70
   128
 71
     2
 72
    23
 73
    24
  0
VERTEX
  5
210
  8
0
 62
     9
 10
0.0
 20
0.0
 30
0.0
 70
   128
 71
    24
 72
     1
 73
     2
  0
VERTEX
  5
211
  8
0
 62
     9
 10
0.0
 20
0.0
 30
0.0
 70
   128
 71
    22
 72
    24
 73
    23
  0
VERTEX
  5
212
  8
0
 62
     9
 10
0.0
 20
0.0
 30
0.0
 70
   128
 71
    20
 72
    22
 73
    21
  0
VERTEX
  5
213
  8
0
 62
     9
 10
0.0
 20
0.0
 30
0.0
 70
   128
 71
    16
 72
    20
 73
    19
  0
VERTEX
  5
214
  8
0
 62
     9
 10
0.0
 20
0.0
 30
0.0
 70
   128
 71
    16
 72
    18
 73
    17
  0
VERTEX
  5
215
  8
0
 62
     9
 10
0.0
 20
0.0
 30
0.0
 70
   128
 71
    14
 72
    17
 73
    15
  0
VERTEX
  5
216
  8
0
 62
     9
 10
0.0
 20
0.0
 30
0.0
 70
   128
 71
    12
 72
    15
 73
    13
  0
VERTEX
  5
217
  8
0
 62
     9
 10
0.0
 20
0.0
 30
0.0
 70
   128
 71
    10
 72
    13
 73
    11
  0
VERTEX
  5
218
  8
0
 62
     9
 10
0.0
 20
0.0
 30
0.0
 70
   128
 71
     8
 72
    11
 73
     9
  0
VERTEX
  5
219
  8
0
 62
     9
 10
0.0
 20
0.0
 30
0.0
 70
   128
 71
     6
 72
     9
 73
     7
  0
VERTEX
  5
21A
  8
0
 62
     9
 10
0.0
 20
0.0
 30
0.0
 70
   128
 71
     4
 72
     7
 73
     3
  0
VERTEX
  5
21B
  8
0
 62
     9
 10
0.0
 20
0.0
 30
0.0
 70
   128
 71
     1
 72
     5
 73
     3
  0
SEQEND
  5
21C
  8
0
 62
     9
  0
ENDBLK
  5
21F
  8
0
  0
BLOCK
  8
0
  2
E3_NODE_8_
 70
     0
 10
0.0
 20
0.0
 30
0.0
  3
E3_NODE_8_
  1

  0
POLYLINE
  5
221
  8
0
 62
     9
 66
     1
 10
0.0
 20
0.0
 30
0.0
 70
    64
 71
    19
 72
    17
  0
VERTEX
  5
222
  8
0
 10
92.802001953125
 20
0.460999995470047
 30
7.85099983215332
 70
   192
  0
VERTEX
  5
223
  8
0
 10
104.0120010375977
 20
-16.53499984741211
 30
26.88100051879883
 70
   192
  0
VERTEX
  5
224
  8
0
 10
106.1809997558594
 20
-11.69200038909912
 30
30.56399917602539
 70
   192
  0
VERTEX
  5
225
  8
0
 10
107.629997253418
 20
-5.764999866485596
 30
33.02399826049805
 70
   192
  0
VERTEX
  5
226
  8
0
 10
107.7969970703125
 20
-4.556000232696533
 30
33.30699920654297
 70
   192
  0
VERTEX
  5
227
  8
0
 10
98.677001953125
 20
-22.77300071716309
 30
17.82500076293945
 70
   192
  0
VERTEX
  5
228
  8
0
 10
100.4909973144531
 20
-21.20000076293945
 30
20.90500068664551
 70
   192
  0
VERTEX
  5
229
  8
0
 10
108.056999206543
 20
1.074000000953674
 30
33.74900054931641
 70
   192
  0
VERTEX
  5
22A
  8
0
 10
107.9209976196289
 20
3.38100004196167
 30
33.51800155639648
 70
   192
  0
VERTEX
  5
22B
  8
0
 10
103.6370010375977
 20
-17.16799926757812
 30
26.2450008392334
 70
   192
  0
VERTEX
  5
22C
  8
0
 10
94.56500244140625
 20
-24.86899948120117
 30
10.8430004119873
 70
   192
  0
VERTEX
  5
22D
  8
0
 10
103.6890029907227
 20
17.08200073242188
 30
26.33399963378906
 70
   192
  0
VERTEX
  5
22E
  8
0
 10
100.7099990844727
 20
20.97800064086914
 30
21.27599906921387
 70
   192
  0
VERTEX
  5
22F
  8
0
 10
106.5930023193359
 20
10.4040002822876
 30
31.26199913024902
 70
   192
  0
VERTEX
  5
230
  8
0
 10
104.6539993286133
 20
15.34000015258789
 30
27.97100067138672
 70
   192
  0
VERTEX
  5
231
  8
0
 10
107.0149993896484
 20
8.843999862670898
 30
31.97999954223633
 70
   192
  0
VERTEX
  5
232
  8
0
 10
96.85399627685547
 20
23.91900062561035
 30
14.72999954223633
 70
   192
  0
VERTEX
  5
233
  8
0
 10
92.802001953125
 20
-25.35700035095215
 30
7.85099983215332
 70
   192
  0
VERTEX
  5
234
  8
0
 10
92.802001953125
 20
25.35700035095215
 30
7.85099983215332
 70
   192
  0
VERTEX
  5
235
  8
0
 62
     9
 10
0.0
 20
0.0
 30
0.0
 70
   128
 71
     3
 72
     2
 73
     1
  0
VERTEX
  5
236
  8
0
 62
     9
 10
0.0
 20
0.0
 30
0.0
 70
   128
 71
     1
 72
     4
 73
     3
  0
VERTEX
  5
237
  8
0
 62
     9
 10
0.0
 20
0.0
 30
0.0
 70
   128
 71
     1
 72
     5
 73
     4
  0
VERTEX
  5
238
  8
0
 62
     9
 10
0.0
 20
0.0
 30
0.0
 70
   128
 71
     7
 72
     6
 73
     1
  0
VERTEX
  5
239
  8
0
 62
     9
 10
0.0
 20
0.0
 30
0.0
 70
   128
 71
     9
 72
     8
 73
     1
  0
VERTEX
  5
23A
  8
0
 62
     9
 10
0.0
 20
0.0
 30
0.0
 70
   128
 71
     2
 72
    10
 73
     1
  0
VERTEX
  5
23B
  8
0
 62
     9
 10
0.0
 20
0.0
 30
0.0
 70
   128
 71
     6
 72
    11
 73
     1
  0
VERTEX
  5
23C
  8
0
 62
     9
 10
0.0
 20
0.0
 30
0.0
 70
   128
 71
    13
 72
    12
 73
     1
  0
VERTEX
  5
23D
  8
0
 62
     9
 10
0.0
 20
0.0
 30
0.0
 70
   128
 71
    15
 72
    14
 73
     1
  0
VERTEX
  5
23E
  8
0
 62
     9
 10
0.0
 20
0.0
 30
0.0
 70
   128
 71
     1
 72
    16
 73
     9
  0
VERTEX
  5
23F
  8
0
 62
     9
 10
0.0
 20
0.0
 30
0.0
 70
   128
 71
     1
 72
    10
 73
     7
  0
VERTEX
  5
240
  8
0
 62
     9
 10
0.0
 20
0.0
 30
0.0
 70
   128
 71
     1
 72
    17
 73
    13
  0
VERTEX
  5
241
  8
0
 62
     9
 10
0.0
 20
0.0
 30
0.0
 70
   128
 71
     1
 72
    14
 73
    16
  0
VERTEX
  5
242
  8
0
 62
     9
 10
0.0
 20
0.0
 30
0.0
 70
   128
 71
    11
 72
    18
 73
     1
  0
VERTEX
  5
243
  8
0
 62
     9
 10
0.0
 20
0.0
 30
0.0
 70
   128
 71
     1
 72
    12
 73
    15
  0
VERTEX
  5
244
  8
0
 62
     9
 10
0.0
 20
0.0
 30
0.0
 70
   128
 71
     1
 72
    19
 73
    17
  0
VERTEX
  5
245
  8
0
 62
     9
 10
0.0
 20
0.0
 30
0.0
 70
   128
 71
     1
 72
     8
 73
     5
  0
SEQEND
  5
246
  8
0
 62
     9
  0
ENDBLK
  5
249
  8
0
  0
BLOCK
  8
0
  2
E3_NODE_9_
 70
     0
 10
0.0
 20
0.0
 30
0.0
  3
E3_NODE_9_
  1

  0
POLYLINE
  5
24B
  8
0
 62
     9
 66
     1
 10
0.0
 20
0.0
 30
0.0
 70
    64
 71
    49
 72
    47
  0
VERTEX
  5
24C
  8
0
 10
92.802001953125
 20
25.35700035095215
 30
7.85099983215332
 70
   192
  0
VERTEX
  5
24D
  8
0
 10
96.85399627685547
 20
23.91900062561035
 30
14.72999954223633
 70
   192
  0
VERTEX
  5
24E
  8
0
 10
95.36299896240234
 20
24.84900093078613
 30
11.56999969482422
 70
   192
  0
VERTEX
  5
24F
  8
0
 10
97.15599822998047
 20
24.20899963378906
 30
14.64099979400635
 70
   192
  0
VERTEX
  5
250
  8
0
 10
100.7099990844727
 20
20.97800064086914
 30
21.27599906921387
 70
   192
  0
VERTEX
  5
251
  8
0
 10
99.71600341796875
 20
22.23500061035156
 30
19.04599952697754
 70
   192
  0
VERTEX
  5
252
  8
0
 10
101.004997253418
 20
21.24099922180176
 30
21.26300048828125
 70
   192
  0
VERTEX
  5
253
  8
0
 10
103.6890029907227
 20
17.08200073242188
 30
26.33399963378906
 70
   192
  0
VERTEX
  5
254
  8
0
 10
103.2050018310547
 20
18.32500076293945
 30
25.05500030517578
 70
   192
  0
VERTEX
  5
255
  8
0
 10
103.9749984741211
 20
17.30400085449219
 30
26.38199996948242
 70
   192
  0
VERTEX
  5
256
  8
0
 10
104.6539993286133
 20
15.34000015258789
 30
27.97100067138672
 70
   192
  0
VERTEX
  5
257
  8
0
 10
106.5930023193359
 20
10.4040002822876
 30
31.26199913024902
 70
   192
  0
VERTEX
  5
258
  8
0
 10
106.8679962158203
 20
10.54300022125244
 30
31.37599945068359
 70
   192
  0
VERTEX
  5
259
  8
0
 10
105.9140014648438
 20
13.01000022888184
 30
29.72900009155273
 70
   192
  0
VERTEX
  5
25A
  8
0
 10
107.0149993896484
 20
8.843999862670898
 30
31.97999954223633
 70
   192
  0
VERTEX
  5
25B
  8
0
 10
107.9209976196289
 20
3.38100004196167
 30
33.51800155639648
 70
   192
  0
VERTEX
  5
25C
  8
0
 10
108.1910018920898
 20
3.427000045776367
 30
33.6619987487793
 70
   192
  0
VERTEX
  5
25D
  8
0
 10
107.6890029907227
 20
6.511000156402588
 30
32.79299926757812
 70
   192
  0
VERTEX
  5
25E
  8
0
 10
107.6500015258789
 20
6.751999855041504
 30
32.72600173950195
 70
   192
  0
VERTEX
  5
25F
  8
0
 10
108.056999206543
 20
1.074000000953674
 30
33.74900054931641
 70
   192
  0
VERTEX
  5
260
  8
0
 10
107.7969970703125
 20
-4.556000232696533
 30
33.30699920654297
 70
   192
  0
VERTEX
  5
261
  8
0
 10
108.068000793457
 20
-4.618000030517578
 30
33.44800186157227
 70
   192
  0
VERTEX
  5
262
  8
0
 10
108.2779998779297
 20
0.0080000003799796
 30
33.8120002746582
 70
   192
  0
VERTEX
  5
263
  8
0
 10
107.9010009765625
 20
-5.842999935150146
 30
33.1609992980957
 70
   192
  0
VERTEX
  5
264
  8
0
 10
106.1809997558594
 20
-11.69200038909912
 30
30.56399917602539
 70
   192
  0
VERTEX
  5
265
  8
0
 10
106.4580001831055
 20
-11.84700012207031
 30
30.66799926757812
 70
   192
  0
VERTEX
  5
266
  8
0
 10
107.6829986572266
 20
-6.751999855041504
 30
32.78300094604492
 70
   192
  0
VERTEX
  5
267
  8
0
 10
107.629997253418
 20
-5.764999866485596
 30
33.02399826049805
 70
   192
  0
VERTEX
  5
268
  8
0
 10
107.6890029907227
 20
-6.72599983215332
 30
32.79399871826172
 70
   192
  0
VERTEX
  5
269
  8
0
 10
104.0120010375977
 20
-16.53499984741211
 30
26.88100051879883
 70
   192
  0
VERTEX
  5
26A
  8
0
 10
104.2959976196289
 20
-16.75099945068359
 30
26.93499946594238
 70
   192
  0
VERTEX
  5
26B
  8
0
 10
105.9390029907227
 20
-13.02499961853027
 30
29.77099990844727
 70
   192
  0
VERTEX
  5
26C
  8
0
 10
103.9219970703125
 20
-17.39100074768066
 30
26.29199981689453
 70
   192
  0
VERTEX
  5
26D
  8
0
 10
100.4909973144531
 20
-21.20000076293945
 30
20.90500068664551
 70
   192
  0
VERTEX
  5
26E
  8
0
 10
100.786003112793
 20
-21.46500015258789
 30
20.88699913024902
 70
   192
  0
VERTEX
  5
26F
  8
0
 10
103.2050018310547
 20
-18.32299995422363
 30
25.05599975585938
 70
   192
  0
VERTEX
  5
270
  8
0
 10
103.6370010375977
 20
-17.16799926757812
 30
26.2450008392334
 70
   192
  0
VERTEX
  5
271
  8
0
 10
98.677001953125
 20
-22.77300071716309
 30
17.82500076293945
 70
   192
  0
VERTEX
  5
272
  8
0
 10
99.74800109863281
 20
-22.37700080871582
 30
19.09900093078613
 70
   192
  0
VERTEX
  5
273
  8
0
 10
98.97599792480469
 20
-23.05299949645996
 30
17.77199935913086
 70
   192
  0
VERTEX
  5
274
  8
0
 10
94.56500244140625
 20
-24.86899948120117
 30
10.8430004119873
 70
   192
  0
VERTEX
  5
275
  8
0
 10
95.37799835205078
 20
-24.90200042724609
 30
11.5930004119873
 70
   192
  0
VERTEX
  5
276
  8
0
 10
94.87000274658203
 20
-25.16300010681152
 30
10.72000026702881
 70
   192
  0
VERTEX
  5
277
  8
0
 10
93.11000061035156
 20
-25.65299987792969
 30
7.710999965667725
 70
   192
  0
VERTEX
  5
278
  8
0
 10
92.802001953125
 20
-25.35700035095215
 30
7.85099983215332
 70
   192
  0
VERTEX
  5
279
  8
0
 10
108.3270034790039
 20
1.08899998664856
 30
33.89599990844727
 70
   192
  0
VERTEX
  5
27A
  8
0
 10
107.2890014648438
 20
8.963000297546387
 30
32.10300064086914
 70
   192
  0
VERTEX
  5
27B
  8
0
 10
104.9359970092773
 20
15.54100036621094
 30
28.04000091552734
 70
   192
  0
VERTEX
  5
27C
  8
0
 10
93.11000061035156
 20
25.65299987792969
 30
7.710999965667725
 70
   192
  0
VERTEX
  5
27D
  8
0
 62
     9
 10
0.0
 20
0.0
 30
0.0
 70
   128
 71
     3
 72
     2
 73
     1
  0
VERTEX
  5
27E
  8
0
 62
     9
 10
0.0
 20
0.0
 30
0.0
 70
   128
 71
     3
 72
     4
 73
     2
  0
VERTEX
  5
27F
  8
0
 62
     9
 10
0.0
 20
0.0
 30
0.0
 70
   128
 71
     6
 72
     5
 73
     2
  0
VERTEX
  5
280
  8
0
 62
     9
 10
0.0
 20
0.0
 30
0.0
 70
   128
 71
     6
 72
     7
 73
     5
  0
VERTEX
  5
281
  8
0
 62
     9
 10
0.0
 20
0.0
 30
0.0
 70
   128
 71
     9
 72
     8
 73
     5
  0
VERTEX
  5
282
  8
0
 62
     9
 10
0.0
 20
0.0
 30
0.0
 70
   128
 71
     9
 72
    10
 73
     8
  0
VERTEX
  5
283
  8
0
 62
     9
 10
0.0
 20
0.0
 30
0.0
 70
   128
 71
    11
 72
     8
 73
    10
  0
VERTEX
  5
284
  8
0
 62
     9
 10
0.0
 20
0.0
 30
0.0
 70
   128
 71
    14
 72
    13
 73
    12
  0
VERTEX
  5
285
  8
0
 62
     9
 10
0.0
 20
0.0
 30
0.0
 70
   128
 71
    12
 72
    11
 73
    14
  0
VERTEX
  5
286
  8
0
 62
     9
 10
0.0
 20
0.0
 30
0.0
 70
   128
 71
    15
 72
    12
 73
    13
  0
VERTEX
  5
287
  8
0
 62
     9
 10
0.0
 20
0.0
 30
0.0
 70
   128
 71
    18
 72
    17
 73
    16
  0
VERTEX
  5
288
  8
0
 62
     9
 10
0.0
 20
0.0
 30
0.0
 70
   128
 71
    16
 72
    15
 73
    18
  0
VERTEX
  5
289
  8
0
 62
     9
 10
0.0
 20
0.0
 30
0.0
 70
   128
 71
    15
 72
    19
 73
    18
  0
VERTEX
  5
28A
  8
0
 62
     9
 10
0.0
 20
0.0
 30
0.0
 70
   128
 71
    20
 72
    16
 73
    17
  0
VERTEX
  5
28B
  8
0
 62
     9
 10
0.0
 20
0.0
 30
0.0
 70
   128
 71
    23
 72
    22
 73
    21
  0
VERTEX
  5
28C
  8
0
 62
     9
 10
0.0
 20
0.0
 30
0.0
 70
   128
 71
    21
 72
    20
 73
    23
  0
VERTEX
  5
28D
  8
0
 62
     9
 10
0.0
 20
0.0
 30
0.0
 70
   128
 71
    21
 72
    22
 73
    24
  0
VERTEX
  5
28E
  8
0
 62
     9
 10
0.0
 20
0.0
 30
0.0
 70
   128
 71
    27
 72
    26
 73
    25
  0
VERTEX
  5
28F
  8
0
 62
     9
 10
0.0
 20
0.0
 30
0.0
 70
   128
 71
    25
 72
    28
 73
    27
  0
VERTEX
  5
290
  8
0
 62
     9
 10
0.0
 20
0.0
 30
0.0
 70
   128
 71
    28
 72
    29
 73
    27
  0
VERTEX
  5
291
  8
0
 62
     9
 10
0.0
 20
0.0
 30
0.0
 70
   128
 71
    32
 72
    31
 73
    30
  0
VERTEX
  5
292
  8
0
 62
     9
 10
0.0
 20
0.0
 30
0.0
 70
   128
 71
    30
 72
    25
 73
    32
  0
VERTEX
  5
293
  8
0
 62
     9
 10
0.0
 20
0.0
 30
0.0
 70
   128
 71
    30
 72
    31
 73
    33
  0
VERTEX
  5
294
  8
0
 62
     9
 10
0.0
 20
0.0
 30
0.0
 70
   128
 71
    36
 72
    35
 73
    34
  0
VERTEX
  5
295
  8
0
 62
     9
 10
0.0
 20
0.0
 30
0.0
 70
   128
 71
    34
 72
    37
 73
    36
  0
VERTEX
  5
296
  8
0
 62
     9
 10
0.0
 20
0.0
 30
0.0
 70
   128
 71
    39
 72
    38
 73
    34
  0
VERTEX
  5
297
  8
0
 62
     9
 10
0.0
 20
0.0
 30
0.0
 70
   128
 71
    39
 72
    40
 73
    38
  0
VERTEX
  5
298
  8
0
 62
     9
 10
0.0
 20
0.0
 30
0.0
 70
   128
 71
    42
 72
    41
 73
    38
  0
VERTEX
  5
299
  8
0
 62
     9
 10
0.0
 20
0.0
 30
0.0
 70
   128
 71
    42
 72
    43
 73
    41
  0
VERTEX
  5
29A
  8
0
 62
     9
 10
0.0
 20
0.0
 30
0.0
 70
   128
 71
    41
 72
    43
 73
    44
  0
VERTEX
  5
29B
  8
0
 62
     9
 10
0.0
 20
0.0
 30
0.0
 70
   128
 71
    44
 72
    45
 73
    41
  0
VERTEX
  5
29C
  8
0
 62
     9
 10
0.0
 20
0.0
 30
0.0
 70
   128
 71
    38
 72
    40
 73
    42
  0
VERTEX
  5
29D
  8
0
 62
     9
 10
0.0
 20
0.0
 30
0.0
 70
   128
 71
    34
 72
    35
 73
    39
  0
VERTEX
  5
29E
  8
0
 62
     9
 10
0.0
 20
0.0
 30
0.0
 70
   128
 71
    37
 72
    33
 73
    36
  0
VERTEX
  5
29F
  8
0
 62
     9
 10
0.0
 20
0.0
 30
0.0
 70
   128
 71
    33
 72
    37
 73
    30
  0
VERTEX
  5
2A0
  8
0
 62
     9
 10
0.0
 20
0.0
 30
0.0
 70
   128
 71
    25
 72
    26
 73
    32
  0
VERTEX
  5
2A1
  8
0
 62
     9
 10
0.0
 20
0.0
 30
0.0
 70
   128
 71
    28
 72
    24
 73
    29
  0
VERTEX
  5
2A2
  8
0
 62
     9
 10
0.0
 20
0.0
 30
0.0
 70
   128
 71
    24
 72
    28
 73
    21
  0
VERTEX
  5
2A3
  8
0
 62
     9
 10
0.0
 20
0.0
 30
0.0
 70
   128
 71
    20
 72
    46
 73
    23
  0
VERTEX
  5
2A4
  8
0
 62
     9
 10
0.0
 20
0.0
 30
0.0
 70
   128
 71
    17
 72
    46
 73
    20
  0
VERTEX
  5
2A5
  8
0
 62
     9
 10
0.0
 20
0.0
 30
0.0
 70
   128
 71
    15
 72
    47
 73
    19
  0
VERTEX
  5
2A6
  8
0
 62
     9
 10
0.0
 20
0.0
 30
0.0
 70
   128
 71
    13
 72
    47
 73
    15
  0
VERTEX
  5
2A7
  8
0
 62
     9
 10
0.0
 20
0.0
 30
0.0
 70
   128
 71
    11
 72
    48
 73
    14
  0
VERTEX
  5
2A8
  8
0
 62
     9
 10
0.0
 20
0.0
 30
0.0
 70
   128
 71
    10
 72
    48
 73
    11
  0
VERTEX
  5
2A9
  8
0
 62
     9
 10
0.0
 20
0.0
 30
0.0
 70
   128
 71
     5
 72
     7
 73
     9
  0
VERTEX
  5
2AA
  8
0
 62
     9
 10
0.0
 20
0.0
 30
0.0
 70
   128
 71
     2
 72
     4
 73
     6
  0
VERTEX
  5
2AB
  8
0
 62
     9
 10
0.0
 20
0.0
 30
0.0
 70
   128
 71
     1
 72
    49
 73
     3
  0
SEQEND
  5
2AC
  8
0
 62
     9
  0
ENDBLK
  5
2AF
  8
0
  0
BLOCK
  8
0
  2
E3_NODE_10_
 70
     0
 10
0.0
 20
0.0
 30
0.0
  3
E3_NODE_10_
  1

  0
POLYLINE
  5
2B1
  8
0
 62
     9
 66
     1
 10
0.0
 20
0.0
 30
0.0
 70
    64
 71
     4
 72
     2
  0
VERTEX
  5
2B2
  8
0
 10
92.25499725341797
 20
25.48500061035156
 30
6.505000114440918
 70
   192
  0
VERTEX
  5
2B3
  8
0
 10
92.802001953125
 20
25.35700035095215
 30
7.85099983215332
 70
   192
  0
VERTEX
  5
2B4
  8
0
 10
93.11000061035156
 20
25.65299987792969
 30
7.710999965667725
 70
   192
  0
VERTEX
  5
2B5
  8
0
 10
92.59700012207031
 20
25.7810001373291
 30
6.440999984741211
 70
   192
  0
VERTEX
  5
2B6
  8
0
 62
     9
 10
0.0
 20
0.0
 30
0.0
 70
   128
 71
     3
 72
     2
 73
     1
  0
VERTEX
  5
2B7
  8
0
 62
     9
 10
0.0
 20
0.0
 30
0.0
 70
   128
 71
     1
 72
     4
 73
     3
  0
SEQEND
  5
2B8
  8
0
 62
     9
  0
ENDBLK
  5
2BB
  8
0
  0
BLOCK
  8
0
  2
E3_NODE_11_
 70
     0
 10
0.0
 20
0.0
 30
0.0
  3
E3_NODE_11_
  1

  0
POLYLINE
  5
2BD
  8
0
 62
     9
 66
     1
 10
0.0
 20
0.0
 30
0.0
 70
    64
 71
     4
 72
     2
  0
VERTEX
  5
2BE
  8
0
 10
92.25499725341797
 20
-25.48500061035156
 30
6.505000114440918
 70
   192
  0
VERTEX
  5
2BF
  8
0
 10
92.59700012207031
 20
-25.7810001373291
 30
6.440999984741211
 70
   192
  0
VERTEX
  5
2C0
  8
0
 10
93.11000061035156
 20
-25.65299987792969
 30
7.710999965667725
 70
   192
  0
VERTEX
  5
2C1
  8
0
 10
92.802001953125
 20
-25.35700035095215
 30
7.85099983215332
 70
   192
  0
VERTEX
  5
2C2
  8
0
 62
     9
 10
0.0
 20
0.0
 30
0.0
 70
   128
 71
     3
 72
     2
 73
     1
  0
VERTEX
  5
2C3
  8
0
 62
     9
 10
0.0
 20
0.0
 30
0.0
 70
   128
 71
     1
 72
     4
 73
     3
  0
SEQEND
  5
2C4
  8
0
 62
     9
  0
ENDBLK
  5
2C7
  8
0
  0
BLOCK
  8
0
  2
E3_NODE_12_
 70
     0
 10
0.0
 20
0.0
 30
0.0
  3
E3_NODE_12_
  1

  0
POLYLINE
  5
2C9
  8
0
 62
     9
 66
     1
 10
0.0
 20
0.0
 30
0.0
 70
    64
 71
    10
 72
     8
  0
VERTEX
  5
2CA
  8
0
 10
92.11199951171875
 20
0.460999995470047
 30
5.183000087738037
 70
   192
  0
VERTEX
  5
2CB
  8
0
 10
92.25499725341797
 20
25.48500061035156
 30
6.505000114440918
 70
   192
  0
VERTEX
  5
2CC
  8
0
 10
92.23100280761719
 20
25.48500061035156
 30
6.403999805450439
 70
   192
  0
VERTEX
  5
2CD
  8
0
 10
92.802001953125
 20
0.460999995470047
 30
7.85099983215332
 70
   192
  0
VERTEX
  5
2CE
  8
0
 10
92.802001953125
 20
25.35700035095215
 30
7.85099983215332
 70
   192
  0
VERTEX
  5
2CF
  8
0
 10
92.25499725341797
 20
-25.48500061035156
 30
6.505000114440918
 70
   192
  0
VERTEX
  5
2D0
  8
0
 10
92.802001953125
 20
-25.35700035095215
 30
7.85099983215332
 70
   192
  0
VERTEX
  5
2D1
  8
0
 10
92.11199951171875
 20
-25.34700012207031
 30
5.183000087738037
 70
   192
  0
VERTEX
  5
2D2
  8
0
 10
92.23100280761719
 20
-25.48500061035156
 30
6.403999805450439
 70
   192
  0
VERTEX
  5
2D3
  8
0
 10
92.11199951171875
 20
25.34700012207031
 30
5.183000087738037
 70
   192
  0
VERTEX
  5
2D4
  8
0
 62
     9
 10
0.0
 20
0.0
 30
0.0
 70
   128
 71
     3
 72
     2
 73
     1
  0
VERTEX
  5
2D5
  8
0
 62
     9
 10
0.0
 20
0.0
 30
0.0
 70
   128
 71
     5
 72
     4
 73
     1
  0
VERTEX
  5
2D6
  8
0
 62
     9
 10
0.0
 20
0.0
 30
0.0
 70
   128
 71
     1
 72
     2
 73
     5
  0
VERTEX
  5
2D7
  8
0
 62
     9
 10
0.0
 20
0.0
 30
0.0
 70
   128
 71
     7
 72
     6
 73
     1
  0
VERTEX
  5
2D8
  8
0
 62
     9
 10
0.0
 20
0.0
 30
0.0
 70
   128
 71
     9
 72
     8
 73
     1
  0
VERTEX
  5
2D9
  8
0
 62
     9
 10
0.0
 20
0.0
 30
0.0
 70
   128
 71
     1
 72
     6
 73
     9
  0
VERTEX
  5
2DA
  8
0
 62
     9
 10
0.0
 20
0.0
 30
0.0
 70
   128
 71
     1
 72
     4
 73
     7
  0
VERTEX
  5
2DB
  8
0
 62
     9
 10
0.0
 20
0.0
 30
0.0
 70
   128
 71
     1
 72
    10
 73
     3
  0
SEQEND
  5
2DC
  8
0
 62
     9
  0
ENDBLK
  5
2DF
  8
0
  0
BLOCK
  8
0
  2
E3_NODE_13_
 70
     0
 10
0.0
 20
0.0
 30
0.0
  3
E3_NODE_13_
  1

  0
POLYLINE
  5
2E1
  8
0
 62
     9
 66
     1
 10
0.0
 20
0.0
 30
0.0
 70
    64
 71
    19
 72
    17
  0
VERTEX
  5
2E2
  8
0
 10
92.11199951171875
 20
0.460999995470047
 30
5.183000087738037
 70
   192
  0
VERTEX
  5
2E3
  8
0
 10
92.4469985961914
 20
19.45199966430664
 30
-7.603000164031982
 70
   192
  0
VERTEX
  5
2E4
  8
0
 10
92.49500274658203
 20
17.7549991607666
 30
-9.414999961853027
 70
   192
  0
VERTEX
  5
2E5
  8
0
 10
92.30400085449219
 20
23.00799942016602
 30
-2.147000074386597
 70
   192
  0
VERTEX
  5
2E6
  8
0
 10
92.59600067138672
 20
12.56799983978271
 30
-13.28299999237061
 70
   192
  0
VERTEX
  5
2E7
  8
0
 10
92.62200164794922
 20
10.56700038909912
 30
-14.29599952697754
 70
   192
  0
VERTEX
  5
2E8
  8
0
 10
92.6729965209961
 20
4.317999839782715
 30
-16.22500038146973
 70
   192
  0
VERTEX
  5
2E9
  8
0
 10
92.27899932861328
 20
23.45999908447266
 30
-1.169000029563904
 70
   192
  0
VERTEX
  5
2EA
  8
0
 10
92.11199951171875
 20
25.34700012207031
 30
5.183000087738037
 70
   192
  0
VERTEX
  5
2EB
  8
0
 10
92.5719985961914
 20
-14.05700016021729
 30
-12.375
 70
   192
  0
VERTEX
  5
2EC
  8
0
 10
92.46199798583984
 20
-18.96500015258789
 30
-8.15999984741211
 70
   192
  0
VERTEX
  5
2ED
  8
0
 10
92.41699981689453
 20
-20.3799991607666
 30
-6.443999767303467
 70
   192
  0
VERTEX
  5
2EE
  8
0
 10
92.5979995727539
 20
-12.41300010681152
 30
-13.36900043487549
 70
   192
  0
VERTEX
  5
2EF
  8
0
 10
92.68000030517578
 20
2.328999996185303
 30
-16.49399948120117
 70
   192
  0
VERTEX
  5
2F0
  8
0
 10
92.67400360107422
 20
-4.065000057220459
 30
-16.26799964904785
 70
   192
  0
VERTEX
  5
2F1
  8
0
 10
92.66100311279297
 20
-6.361999988555908
 30
-15.7810001373291
 70
   192
  0
VERTEX
  5
2F2
  8
0
 10
92.26699829101562
 20
-23.64699935913086
 30
-0.7310000061988831
 70
   192
  0
VERTEX
  5
2F3
  8
0
 10
92.21900177001953
 20
-24.32999992370605
 30
1.090999960899353
 70
   192
  0
VERTEX
  5
2F4
  8
0
 10
92.11199951171875
 20
-25.34700012207031
 30
5.183000087738037
 70
   192
  0
VERTEX
  5
2F5
  8
0
 62
     9
 10
0.0
 20
0.0
 30
0.0
 70
   128
 71
     3
 72
     2
 73
     1
  0
VERTEX
  5
2F6
  8
0
 62
     9
 10
0.0
 20
0.0
 30
0.0
 70
   128
 71
     2
 72
     4
 73
     1
  0
VERTEX
  5
2F7
  8
0
 62
     9
 10
0.0
 20
0.0
 30
0.0
 70
   128
 71
     1
 72
     5
 73
     3
  0
VERTEX
  5
2F8
  8
0
 62
     9
 10
0.0
 20
0.0
 30
0.0
 70
   128
 71
     1
 72
     6
 73
     5
  0
VERTEX
  5
2F9
  8
0
 62
     9
 10
0.0
 20
0.0
 30
0.0
 70
   128
 71
     1
 72
     7
 73
     6
  0
VERTEX
  5
2FA
  8
0
 62
     9
 10
0.0
 20
0.0
 30
0.0
 70
   128
 71
     4
 72
     8
 73
     1
  0
VERTEX
  5
2FB
  8
0
 62
     9
 10
0.0
 20
0.0
 30
0.0
 70
   128
 71
     8
 72
     9
 73
     1
  0
VERTEX
  5
2FC
  8
0
 62
     9
 10
0.0
 20
0.0
 30
0.0
 70
   128
 71
    11
 72
    10
 73
     1
  0
VERTEX
  5
2FD
  8
0
 62
     9
 10
0.0
 20
0.0
 30
0.0
 70
   128
 71
     1
 72
    12
 73
    11
  0
VERTEX
  5
2FE
  8
0
 62
     9
 10
0.0
 20
0.0
 30
0.0
 70
   128
 71
    10
 72
    13
 73
     1
  0
VERTEX
  5
2FF
  8
0
 62
     9
 10
0.0
 20
0.0
 30
0.0
 70
   128
 71
    15
 72
    14
 73
     1
  0
VERTEX
  5
300
  8
0
 62
     9
 10
0.0
 20
0.0
 30
0.0
 70
   128
 71
     1
 72
    16
 73
    15
  0
VERTEX
  5
301
  8
0
 62
     9
 10
0.0
 20
0.0
 30
0.0
 70
   128
 71
     1
 72
    13
 73
    16
  0
VERTEX
  5
302
  8
0
 62
     9
 10
0.0
 20
0.0
 30
0.0
 70
   128
 71
     1
 72
    17
 73
    12
  0
VERTEX
  5
303
  8
0
 62
     9
 10
0.0
 20
0.0
 30
0.0
 70
   128
 71
     1
 72
    18
 73
    17
  0
VERTEX
  5
304
  8
0
 62
     9
 10
0.0
 20
0.0
 30
0.0
 70
   128
 71
     1
 72
    19
 73
    18
  0
VERTEX
  5
305
  8
0
 62
     9
 10
0.0
 20
0.0
 30
0.0
 70
   128
 71
     1
 72
    14
 73
     7
  0
SEQEND
  5
306
  8
0
 62
     9
  0
ENDBLK
  5
309
  8
0
  0
BLOCK
  8
0
  2
E3_NODE_14_
 70
     0
 10
0.0
 20
0.0
 30
0.0
  3
E3_NODE_14_
  1

  0
POLYLINE
  5
30B
  8
0
 62
     9
 66
     1
 10
0.0
 20
0.0
 30
0.0
 70
    64
 71
    43
 72
    41
  0
VERTEX
  5
30C
  8
0
 10
92.62899780273438
 20
23.73100090026855
 30
-1.277999997138977
 70
   192
  0
VERTEX
  5
30D
  8
0
 10
92.27899932861328
 20
23.45999908447266
 30
-1.169000029563904
 70
   192
  0
VERTEX
  5
30E
  8
0
 10
92.11199951171875
 20
25.34700012207031
 30
5.183000087738037
 70
   192
  0
VERTEX
  5
30F
  8
0
 10
92.65399932861328
 20
23.27400016784668
 30
-2.267999887466431
 70
   192
  0
VERTEX
  5
310
  8
0
 10
92.30400085449219
 20
23.00799942016602
 30
-2.147000074386597
 70
   192
  0
VERTEX
  5
311
  8
0
 10
92.65399932861328
 20
23.26600074768066
 30
-2.280999898910522
 70
   192
  0
VERTEX
  5
312
  8
0
 10
92.78800201416016
 20
19.67900085449219
 30
-7.787000179290771
 70
   192
  0
VERTEX
  5
313
  8
0
 10
92.4469985961914
 20
19.45199966430664
 30
-7.603000164031982
 70
   192
  0
VERTEX
  5
314
  8
0
 10
92.83100128173828
 20
17.96299934387207
 30
-9.619999885559082
 70
   192
  0
VERTEX
  5
315
  8
0
 10
92.49500274658203
 20
17.7549991607666
 30
-9.414999961853027
 70
   192
  0
VERTEX
  5
316
  8
0
 10
92.59600067138672
 20
12.56799983978271
 30
-13.28299999237061
 70
   192
  0
VERTEX
  5
317
  8
0
 10
92.84200286865234
 20
17.33799934387207
 30
-10.08600044250488
 70
   192
  0
VERTEX
  5
318
  8
0
 10
92.9219970703125
 20
12.71399974822998
 30
-13.53499984741211
 70
   192
  0
VERTEX
  5
319
  8
0
 10
92.94499969482422
 20
10.69099998474121
 30
-14.56099987030029
 70
   192
  0
VERTEX
  5
31A
  8
0
 10
92.62200164794922
 20
10.56700038909912
 30
-14.29599952697754
 70
   192
  0
VERTEX
  5
31B
  8
0
 10
92.6729965209961
 20
4.317999839782715
 30
-16.22500038146973
 70
   192
  0
VERTEX
  5
31C
  8
0
 10
92.95700073242188
 20
8.994999885559082
 30
-15.08399963378906
 70
   192
  0
VERTEX
  5
31D
  8
0
 10
92.98899841308594
 20
4.369999885559082
 30
-16.51199913024902
 70
   192
  0
VERTEX
  5
31E
  8
0
 10
92.99600219726562
 20
2.358000040054321
 30
-16.78499984741211
 70
   192
  0
VERTEX
  5
31F
  8
0
 10
92.68000030517578
 20
2.328999996185303
 30
-16.49399948120117
 70
   192
  0
VERTEX
  5
320
  8
0
 10
92.67400360107422
 20
-4.065000057220459
 30
-16.26799964904785
 70
   192
  0
VERTEX
  5
321
  8
0
 10
92.99400329589844
 20
0.0070000002160668
 30
-16.70100021362305
 70
   192
  0
VERTEX
  5
322
  8
0
 10
92.97899627685547
 20
-6.436999797821045
 30
-16.0629997253418
 70
   192
  0
VERTEX
  5
323
  8
0
 10
92.66100311279297
 20
-6.361999988555908
 30
-15.7810001373291
 70
   192
  0
VERTEX
  5
324
  8
0
 10
92.5979995727539
 20
-12.41300010681152
 30
-13.36900043487549
 70
   192
  0
VERTEX
  5
325
  8
0
 10
92.95600128173828
 20
-8.968999862670898
 30
-15.05399990081787
 70
   192
  0
VERTEX
  5
326
  8
0
 10
92.9010009765625
 20
-14.22200012207031
 30
-12.61699962615967
 70
   192
  0
VERTEX
  5
327
  8
0
 10
92.5719985961914
 20
-14.05700016021729
 30
-12.375
 70
   192
  0
VERTEX
  5
328
  8
0
 10
92.83999633789062
 20
-17.26000022888184
 30
-10.00599956512451
 70
   192
  0
VERTEX
  5
329
  8
0
 10
92.46199798583984
 20
-18.96500015258789
 30
-8.15999984741211
 70
   192
  0
VERTEX
  5
32A
  8
0
 10
92.76000213623047
 20
-20.61700057983398
 30
-6.613999843597412
 70
   192
  0
VERTEX
  5
32B
  8
0
 10
92.41699981689453
 20
-20.3799991607666
 30
-6.443999767303467
 70
   192
  0
VERTEX
  5
32C
  8
0
 10
92.6520004272461
 20
-23.13599967956543
 30
-2.207000017166138
 70
   192
  0
VERTEX
  5
32D
  8
0
 10
92.26699829101562
 20
-23.64699935913086
 30
-0.7310000061988831
 70
   192
  0
VERTEX
  5
32E
  8
0
 10
92.5719985961914
 20
-24.61100006103516
 30
1.00600004196167
 70
   192
  0
VERTEX
  5
32F
  8
0
 10
92.21900177001953
 20
-24.32999992370605
 30
1.090999960899353
 70
   192
  0
VERTEX
  5
330
  8
0
 10
92.46499633789062
 20
-25.63899993896484
 30
5.144000053405762
 70
   192
  0
VERTEX
  5
331
  8
0
 10
92.11199951171875
 20
-25.34700012207031
 30
5.183000087738037
 70
   192
  0
VERTEX
  5
332
  8
0
 10
92.61799621582031
 20
-23.92000007629395
 30
-0.8360000252723694
 70
   192
  0
VERTEX
  5
333
  8
0
 10
92.8010025024414
 20
-19.18600082397461
 30
-8.35099983215332
 70
   192
  0
VERTEX
  5
334
  8
0
 10
92.92400360107422
 20
-12.55799961090088
 30
-13.6230001449585
 70
   192
  0
VERTEX
  5
335
  8
0
 10
92.98999786376953
 20
-4.113999843597412
 30
-16.55599975585938
 70
   192
  0
VERTEX
  5
336
  8
0
 10
92.46499633789062
 20
25.63899993896484
 30
5.144000053405762
 70
   192
  0
VERTEX
  5
337
  8
0
 62
     9
 10
0.0
 20
0.0
 30
0.0
 70
   128
 71
     3
 72
     2
 73
     1
  0
VERTEX
  5
338
  8
0
 62
     9
 10
0.0
 20
0.0
 30
0.0
 70
   128
 71
     5
 72
     4
 73
     1
  0
VERTEX
  5
339
  8
0
 62
     9
 10
0.0
 20
0.0
 30
0.0
 70
   128
 71
     8
 72
     7
 73
     6
  0
VERTEX
  5
33A
  8
0
 62
     9
 10
0.0
 20
0.0
 30
0.0
 70
   128
 71
     6
 72
     4
 73
     5
  0
VERTEX
  5
33B
  8
0
 62
     9
 10
0.0
 20
0.0
 30
0.0
 70
   128
 71
    10
 72
     9
 73
     7
  0
VERTEX
  5
33C
  8
0
 62
     9
 10
0.0
 20
0.0
 30
0.0
 70
   128
 71
    12
 72
    10
 73
    11
  0
VERTEX
  5
33D
  8
0
 62
     9
 10
0.0
 20
0.0
 30
0.0
 70
   128
 71
    12
 72
     9
 73
    10
  0
VERTEX
  5
33E
  8
0
 62
     9
 10
0.0
 20
0.0
 30
0.0
 70
   128
 71
    15
 72
    14
 73
    13
  0
VERTEX
  5
33F
  8
0
 62
     9
 10
0.0
 20
0.0
 30
0.0
 70
   128
 71
    17
 72
    15
 73
    16
  0
VERTEX
  5
340
  8
0
 62
     9
 10
0.0
 20
0.0
 30
0.0
 70
   128
 71
    17
 72
    14
 73
    15
  0
VERTEX
  5
341
  8
0
 62
     9
 10
0.0
 20
0.0
 30
0.0
 70
   128
 71
    20
 72
    19
 73
    18
  0
VERTEX
  5
342
  8
0
 62
     9
 10
0.0
 20
0.0
 30
0.0
 70
   128
 71
    22
 72
    20
 73
    21
  0
VERTEX
  5
343
  8
0
 62
     9
 10
0.0
 20
0.0
 30
0.0
 70
   128
 71
    22
 72
    19
 73
    20
  0
VERTEX
  5
344
  8
0
 62
     9
 10
0.0
 20
0.0
 30
0.0
 70
   128
 71
    21
 72
    24
 73
    23
  0
VERTEX
  5
345
  8
0
 62
     9
 10
0.0
 20
0.0
 30
0.0
 70
   128
 71
    26
 72
    24
 73
    25
  0
VERTEX
  5
346
  8
0
 62
     9
 10
0.0
 20
0.0
 30
0.0
 70
   128
 71
    26
 72
    23
 73
    24
  0
VERTEX
  5
347
  8
0
 62
     9
 10
0.0
 20
0.0
 30
0.0
 70
   128
 71
    25
 72
    28
 73
    27
  0
VERTEX
  5
348
  8
0
 62
     9
 10
0.0
 20
0.0
 30
0.0
 70
   128
 71
    29
 72
    27
 73
    28
  0
VERTEX
  5
349
  8
0
 62
     9
 10
0.0
 20
0.0
 30
0.0
 70
   128
 71
    28
 72
    30
 73
    29
  0
VERTEX
  5
34A
  8
0
 62
     9
 10
0.0
 20
0.0
 30
0.0
 70
   128
 71
    30
 72
    32
 73
    31
  0
VERTEX
  5
34B
  8
0
 62
     9
 10
0.0
 20
0.0
 30
0.0
 70
   128
 71
    33
 72
    31
 73
    32
  0
VERTEX
  5
34C
  8
0
 62
     9
 10
0.0
 20
0.0
 30
0.0
 70
   128
 71
    32
 72
    34
 73
    33
  0
VERTEX
  5
34D
  8
0
 62
     9
 10
0.0
 20
0.0
 30
0.0
 70
   128
 71
    34
 72
    36
 73
    35
  0
VERTEX
  5
34E
  8
0
 62
     9
 10
0.0
 20
0.0
 30
0.0
 70
   128
 71
    38
 72
    37
 73
    35
  0
VERTEX
  5
34F
  8
0
 62
     9
 10
0.0
 20
0.0
 30
0.0
 70
   128
 71
    35
 72
    36
 73
    38
  0
VERTEX
  5
350
  8
0
 62
     9
 10
0.0
 20
0.0
 30
0.0
 70
   128
 71
    35
 72
    39
 73
    34
  0
VERTEX
  5
351
  8
0
 62
     9
 10
0.0
 20
0.0
 30
0.0
 70
   128
 71
    34
 72
    39
 73
    33
  0
VERTEX
  5
352
  8
0
 62
     9
 10
0.0
 20
0.0
 30
0.0
 70
   128
 71
    31
 72
    40
 73
    30
  0
VERTEX
  5
353
  8
0
 62
     9
 10
0.0
 20
0.0
 30
0.0
 70
   128
 71
    30
 72
    40
 73
    29
  0
VERTEX
  5
354
  8
0
 62
     9
 10
0.0
 20
0.0
 30
0.0
 70
   128
 71
    27
 72
    41
 73
    25
  0
VERTEX
  5
355
  8
0
 62
     9
 10
0.0
 20
0.0
 30
0.0
 70
   128
 71
    25
 72
    41
 73
    26
  0
VERTEX
  5
356
  8
0
 62
     9
 10
0.0
 20
0.0
 30
0.0
 70
   128
 71
    23
 72
    42
 73
    21
  0
VERTEX
  5
357
  8
0
 62
     9
 10
0.0
 20
0.0
 30
0.0
 70
   128
 71
    21
 72
    42
 73
    22
  0
VERTEX
  5
358
  8
0
 62
     9
 10
0.0
 20
0.0
 30
0.0
 70
   128
 71
    18
 72
    16
 73
    20
  0
VERTEX
  5
359
  8
0
 62
     9
 10
0.0
 20
0.0
 30
0.0
 70
   128
 71
    16
 72
    18
 73
    17
  0
VERTEX
  5
35A
  8
0
 62
     9
 10
0.0
 20
0.0
 30
0.0
 70
   128
 71
    13
 72
    11
 73
    15
  0
VERTEX
  5
35B
  8
0
 62
     9
 10
0.0
 20
0.0
 30
0.0
 70
   128
 71
    11
 72
    13
 73
    12
  0
VERTEX
  5
35C
  8
0
 62
     9
 10
0.0
 20
0.0
 30
0.0
 70
   128
 71
     7
 72
     8
 73
    10
  0
VERTEX
  5
35D
  8
0
 62
     9
 10
0.0
 20
0.0
 30
0.0
 70
   128
 71
     6
 72
     5
 73
     8
  0
VERTEX
  5
35E
  8
0
 62
     9
 10
0.0
 20
0.0
 30
0.0
 70
   128
 71
     1
 72
     2
 73
     5
  0
VERTEX
  5
35F
  8
0
 62
     9
 10
0.0
 20
0.0
 30
0.0
 70
   128
 71
     1
 72
    43
 73
     3
  0
SEQEND
  5
360
  8
0
 62
     9
  0
ENDBLK
  5
363
  8
0
  0
BLOCK
  8
0
  2
E3_NODE_15_
 70
     0
 10
0.0
 20
0.0
 30
0.0
  3
E3_NODE_15_
  1

  0
POLYLINE
  5
365
  8
0
 62
     9
 66
     1
 10
0.0
 20
0.0
 30
0.0
 70
    64
 71
     4
 72
     2
  0
VERTEX
  5
366
  8
0
 10
92.11199951171875
 20
25.34700012207031
 30
5.183000087738037
 70
   192
  0
VERTEX
  5
367
  8
0
 10
92.23100280761719
 20
25.48500061035156
 30
6.403999805450439
 70
   192
  0
VERTEX
  5
368
  8
0
 10
92.57599639892578
 20
25.77799987792969
 30
6.304999828338623
 70
   192
  0
VERTEX
  5
369
  8
0
 10
92.46499633789062
 20
25.63899993896484
 30
5.144000053405762
 70
   192
  0
VERTEX
  5
36A
  8
0
 62
     9
 10
0.0
 20
0.0
 30
0.0
 70
   128
 71
     3
 72
     2
 73
     1
  0
VERTEX
  5
36B
  8
0
 62
     9
 10
0.0
 20
0.0
 30
0.0
 70
   128
 71
     1
 72
     4
 73
     3
  0
SEQEND
  5
36C
  8
0
 62
     9
  0
ENDBLK
  5
36F
  8
0
  0
BLOCK
  8
0
  2
E3_NODE_16_
 70
     0
 10
0.0
 20
0.0
 30
0.0
  3
E3_NODE_16_
  1

  0
POLYLINE
  5
371
  8
0
 62
     9
 66
     1
 10
0.0
 20
0.0
 30
0.0
 70
    64
 71
     4
 72
     2
  0
VERTEX
  5
372
  8
0
 10
92.11199951171875
 20
-25.34700012207031
 30
5.183000087738037
 70
   192
  0
VERTEX
  5
373
  8
0
 10
92.46499633789062
 20
-25.63899993896484
 30
5.144000053405762
 70
   192
  0
VERTEX
  5
374
  8
0
 10
92.57599639892578
 20
-25.77799987792969
 30
6.304999828338623
 70
   192
  0
VERTEX
  5
375
  8
0
 10
92.23100280761719
 20
-25.48500061035156
 30
6.403999805450439
 70
   192
  0
VERTEX
  5
376
  8
0
 62
     9
 10
0.0
 20
0.0
 30
0.0
 70
   128
 71
     3
 72
     2
 73
     1
  0
VERTEX
  5
377
  8
0
 62
     9
 10
0.0
 20
0.0
 30
0.0
 70
   128
 71
     1
 72
     4
 73
     3
  0
SEQEND
  5
378
  8
0
 62
     9
  0
ENDBLK
  5
37B
  8
0
  0
BLOCK
  8
0
  2
E3_NODE_17_
 70
     0
 10
0.0
 20
0.0
 30
0.0
  3
E3_NODE_17_
  1

  0
POLYLINE
  5
37D
  8
0
 62
     9
 66
     1
 10
0.0
 20
0.0
 30
0.0
 70
    64
 71
   129
 72
   177
  0
VERTEX
  5
37E
  8
0
 10
120.1940002441406
 20
0.0
 30
-19.71699905395508
 70
   192
  0
VERTEX
  5
37F
  8
0
 10
124.6719970703125
 20
0.0
 30
-24.7859992980957
 70
   192
  0
VERTEX
  5
380
  8
0
 10
124.7419967651367
 20
-5.831999778747559
 30
-24.58699989318848
 70
   192
  0
VERTEX
  5
381
  8
0
 10
125.3199996948242
 20
-15.80799961090088
 30
-23.12599945068359
 70
   192
  0
VERTEX
  5
382
  8
0
 10
121.4010009765625
 20
-17.23699951171875
 30
-13.09799957275391
 70
   192
  0
VERTEX
  5
383
  8
0
 10
120.713996887207
 20
-12.56999969482422
 30
-16.63100051879883
 70
   192
  0
VERTEX
  5
384
  8
0
 10
113.7959976196289
 20
0.0
 30
-17.20000076293945
 70
   192
  0
VERTEX
  5
385
  8
0
 10
113.9169998168945
 20
-7.230000019073486
 30
-15.81700038909912
 70
   192
  0
VERTEX
  5
386
  8
0
 10
109.6549987792969
 20
-7.684999942779541
 30
-15.10799980163574
 70
   192
  0
VERTEX
  5
387
  8
0
 10
104.7610015869141
 20
0.0
 30
-16.51300048828125
 70
   192
  0
VERTEX
  5
388
  8
0
 10
124.9469985961914
 20
-11.37199974060059
 30
-23.9370002746582
 70
   192
  0
VERTEX
  5
389
  8
0
 10
120.3259963989258
 20
-6.474999904632568
 30
-18.96299934387207
 70
   192
  0
VERTEX
  5
38A
  8
0
 10
117.8889999389648
 20
-13.23200035095215
 30
-13.80099964141846
 70
   192
  0
VERTEX
  5
38B
  8
0
 10
114.2699966430664
 20
-13.99400043487549
 30
-11.58500003814697
 70
   192
  0
VERTEX
  5
38C
  8
0
 10
104.6389999389648
 20
-8.157999992370605
 30
-14.88799953460693
 70
   192
  0
VERTEX
  5
38D
  8
0
 10
109.6429977416992
 20
-14.86200046539307
 30
-10.31799983978271
 70
   192
  0
VERTEX
  5
38E
  8
0
 10
114.9069976806641
 20
-19.0049991607666
 30
-4.967000007629395
 70
   192
  0
VERTEX
  5
38F
  8
0
 10
118.6940002441406
 20
-18.04500007629395
 30
-8.685999870300293
 70
   192
  0
VERTEX
  5
390
  8
0
 10
109.6780014038086
 20
-20.12199974060059
 30
-2.811000108718872
 70
   192
  0
VERTEX
  5
391
  8
0
 10
103.693000793457
 20
-21.29000091552734
 30
-2.142999887466431
 70
   192
  0
VERTEX
  5
392
  8
0
 10
104.2620010375977
 20
-15.76299953460693
 30
-9.914999961853027
 70
   192
  0
VERTEX
  5
393
  8
0
 10
128.0720062255859
 20
-10.22299957275391
 30
-33.65499877929688
 70
   192
  0
VERTEX
  5
394
  8
0
 10
127.9039993286133
 20
0.0
 30
-33.03499984741211
 70
   192
  0
VERTEX
  5
395
  8
0
 10
130.5449981689453
 20
0.0
 30
-44.90000152587891
 70
   192
  0
VERTEX
  5
396
  8
0
 10
128.3040008544922
 20
-14.45300006866455
 30
-34.60800170898438
 70
   192
  0
VERTEX
  5
397
  8
0
 10
130.7120056152344
 20
-9.060999870300293
 30
-46.07699966430664
 70
   192
  0
VERTEX
  5
398
  8
0
 10
128.3040008544922
 20
14.45300006866455
 30
-34.60800170898438
 70
   192
  0
VERTEX
  5
399
  8
0
 10
130.9320068359375
 20
13.07800006866455
 30
-47.65000152587891
 70
   192
  0
VERTEX
  5
39A
  8
0
 10
130.7120056152344
 20
9.060999870300293
 30
-46.07699966430664
 70
   192
  0
VERTEX
  5
39B
  8
0
 10
128.0720062255859
 20
10.22299957275391
 30
-33.65499877929688
 70
   192
  0
VERTEX
  5
39C
  8
0
 10
124.9469985961914
 20
11.37199974060059
 30
-23.9370002746582
 70
   192
  0
VERTEX
  5
39D
  8
0
 10
124.7419967651367
 20
5.831999778747559
 30
-24.58699989318848
 70
   192
  0
VERTEX
  5
39E
  8
0
 10
120.3259963989258
 20
6.474999904632568
 30
-18.96299934387207
 70
   192
  0
VERTEX
  5
39F
  8
0
 10
125.3199996948242
 20
15.80799961090088
 30
-23.12599945068359
 70
   192
  0
VERTEX
  5
3A0
  8
0
 10
120.713996887207
 20
12.56999969482422
 30
-16.63100051879883
 70
   192
  0
VERTEX
  5
3A1
  8
0
 10
117.8889999389648
 20
13.23200035095215
 30
-13.80099964141846
 70
   192
  0
VERTEX
  5
3A2
  8
0
 10
118.6940002441406
 20
18.04500007629395
 30
-8.685999870300293
 70
   192
  0
VERTEX
  5
3A3
  8
0
 10
121.4010009765625
 20
17.23699951171875
 30
-13.09799957275391
 70
   192
  0
VERTEX
  5
3A4
  8
0
 10
114.2699966430664
 20
13.99400043487549
 30
-11.58500003814697
 70
   192
  0
VERTEX
  5
3A5
  8
0
 10
114.9069976806641
 20
19.0049991607666
 30
-4.967000007629395
 70
   192
  0
VERTEX
  5
3A6
  8
0
 10
113.9169998168945
 20
7.230000019073486
 30
-15.81700038909912
 70
   192
  0
VERTEX
  5
3A7
  8
0
 10
109.6549987792969
 20
7.684999942779541
 30
-15.10799980163574
 70
   192
  0
VERTEX
  5
3A8
  8
0
 10
109.6429977416992
 20
14.86200046539307
 30
-10.31799983978271
 70
   192
  0
VERTEX
  5
3A9
  8
0
 10
109.6780014038086
 20
20.12199974060059
 30
-2.811000108718872
 70
   192
  0
VERTEX
  5
3AA
  8
0
 10
104.2620010375977
 20
15.76299953460693
 30
-9.914999961853027
 70
   192
  0
VERTEX
  5
3AB
  8
0
 10
104.6389999389648
 20
8.157999992370605
 30
-14.88799953460693
 70
   192
  0
VERTEX
  5
3AC
  8
0
 10
92.76000213623047
 20
-20.61700057983398
 30
-6.613999843597412
 70
   192
  0
VERTEX
  5
3AD
  8
0
 10
92.8010025024414
 20
-19.18600082397461
 30
-8.35099983215332
 70
   192
  0
VERTEX
  5
3AE
  8
0
 10
92.6520004272461
 20
-23.13599967956543
 30
-2.207000017166138
 70
   192
  0
VERTEX
  5
3AF
  8
0
 10
92.92400360107422
 20
-12.55799961090088
 30
-13.6230001449585
 70
   192
  0
VERTEX
  5
3B0
  8
0
 10
92.9010009765625
 20
-14.22200012207031
 30
-12.61699962615967
 70
   192
  0
VERTEX
  5
3B1
  8
0
 10
92.83999633789062
 20
-17.26000022888184
 30
-10.00599956512451
 70
   192
  0
VERTEX
  5
3B2
  8
0
 10
92.97899627685547
 20
-6.436999797821045
 30
-16.0629997253418
 70
   192
  0
VERTEX
  5
3B3
  8
0
 10
92.98999786376953
 20
-4.113999843597412
 30
-16.55599975585938
 70
   192
  0
VERTEX
  5
3B4
  8
0
 10
92.95600128173828
 20
-8.968999862670898
 30
-15.05399990081787
 70
   192
  0
VERTEX
  5
3B5
  8
0
 10
92.99600219726562
 20
2.358000040054321
 30
-16.78499984741211
 70
   192
  0
VERTEX
  5
3B6
  8
0
 10
92.98899841308594
 20
4.369999885559082
 30
-16.51199913024902
 70
   192
  0
VERTEX
  5
3B7
  8
0
 10
92.99400329589844
 20
0.0070000002160668
 30
-16.70100021362305
 70
   192
  0
VERTEX
  5
3B8
  8
0
 10
92.94499969482422
 20
10.69099998474121
 30
-14.56099987030029
 70
   192
  0
VERTEX
  5
3B9
  8
0
 10
92.9219970703125
 20
12.71399974822998
 30
-13.53499984741211
 70
   192
  0
VERTEX
  5
3BA
  8
0
 10
92.95700073242188
 20
8.994999885559082
 30
-15.08399963378906
 70
   192
  0
VERTEX
  5
3BB
  8
0
 10
103.693000793457
 20
21.29000091552734
 30
-2.142999887466431
 70
   192
  0
VERTEX
  5
3BC
  8
0
 10
92.78800201416016
 20
19.67900085449219
 30
-7.787000179290771
 70
   192
  0
VERTEX
  5
3BD
  8
0
 10
92.84200286865234
 20
17.33799934387207
 30
-10.08600044250488
 70
   192
  0
VERTEX
  5
3BE
  8
0
 10
92.83100128173828
 20
17.96299934387207
 30
-9.619999885559082
 70
   192
  0
VERTEX
  5
3BF
  8
0
 10
92.62899780273438
 20
23.73100090026855
 30
-1.277999997138977
 70
   192
  0
VERTEX
  5
3C0
  8
0
 10
92.46499633789062
 20
25.63899993896484
 30
5.144000053405762
 70
   192
  0
VERTEX
  5
3C1
  8
0
 10
99.70999908447266
 20
24.51499938964844
 30
6.561999797821045
 70
   192
  0
VERTEX
  5
3C2
  8
0
 10
92.57599639892578
 20
25.77799987792969
 30
6.304999828338623
 70
   192
  0
VERTEX
  5
3C3
  8
0
 10
92.65399932861328
 20
23.26600074768066
 30
-2.280999898910522
 70
   192
  0
VERTEX
  5
3C4
  8
0
 10
92.65399932861328
 20
23.27400016784668
 30
-2.267999887466431
 70
   192
  0
VERTEX
  5
3C5
  8
0
 10
103.7929992675781
 20
23.77799987792969
 30
6.486000061035156
 70
   192
  0
VERTEX
  5
3C6
  8
0
 10
109.8880004882812
 20
22.68199920654297
 30
5.546999931335449
 70
   192
  0
VERTEX
  5
3C7
  8
0
 10
103.1269989013672
 20
23.89800071716309
 30
6.499000072479248
 70
   192
  0
VERTEX
  5
3C8
  8
0
 10
114.8600006103516
 20
21.73999977111816
 30
3.226000070571899
 70
   192
  0
VERTEX
  5
3C9
  8
0
 10
115.7750015258789
 20
21.5310001373291
 30
2.216000080108643
 70
   192
  0
VERTEX
  5
3CA
  8
0
 10
110.3830032348633
 20
22.5930004119873
 30
5.471000194549561
 70
   192
  0
VERTEX
  5
3CB
  8
0
 10
119.1179962158203
 20
20.72900009155273
 30
-2.016999959945679
 70
   192
  0
VERTEX
  5
3CC
  8
0
 10
119.7279968261719
 20
20.51499938964844
 30
-3.509000062942505
 70
   192
  0
VERTEX
  5
3CD
  8
0
 10
118.1989974975586
 20
20.97900009155273
 30
-0.4659999907016754
 70
   192
  0
VERTEX
  5
3CE
  8
0
 10
121.7509994506836
 20
19.80500030517578
 30
-8.451000213623047
 70
   192
  0
VERTEX
  5
3CF
  8
0
 10
122.1959991455078
 20
19.56999969482422
 30
-10.06099987030029
 70
   192
  0
VERTEX
  5
3D0
  8
0
 10
124.9020004272461
 20
18.14399909973145
 30
-19.8439998626709
 70
   192
  0
VERTEX
  5
3D1
  8
0
 10
131.0610046386719
 20
15.24199962615967
 30
-49.10800170898438
 70
   192
  0
VERTEX
  5
3D2
  8
0
 10
125.609001159668
 20
17.79999923706055
 30
-22.88199996948242
 70
   192
  0
VERTEX
  5
3D3
  8
0
 10
128.0090026855469
 20
16.63400077819824
 30
-33.1879997253418
 70
   192
  0
VERTEX
  5
3D4
  8
0
 10
136.0010070800781
 20
11.60999965667725
 30
-75.38500213623047
 70
   192
  0
VERTEX
  5
3D5
  8
0
 10
135.7299957275391
 20
13.00899982452393
 30
-73.77400207519531
 70
   192
  0
VERTEX
  5
3D6
  8
0
 10
135.9259948730469
 20
12.75300025939941
 30
-74.83799743652344
 70
   192
  0
VERTEX
  5
3D7
  8
0
 10
136.125
 20
12.05099964141846
 30
-75.98500061035156
 70
   192
  0
VERTEX
  5
3D8
  8
0
 10
136.2579956054688
 20
11.00100040435791
 30
-76.83899688720703
 70
   192
  0
VERTEX
  5
3D9
  8
0
 10
136.2920074462891
 20
10.22599983215332
 30
-77.12100219726562
 70
   192
  0
VERTEX
  5
3DA
  8
0
 10
133.1940002441406
 20
14.27000045776367
 30
-60.23300170898438
 70
   192
  0
VERTEX
  5
3DB
  8
0
 10
136.3139953613281
 20
9.722000122070312
 30
-77.30500030517578
 70
   192
  0
VERTEX
  5
3DC
  8
0
 10
136.3300018310547
 20
6.658999919891357
 30
-77.5979995727539
 70
   192
  0
VERTEX
  5
3DD
  8
0
 10
136.3630065917969
 20
0.5139999985694885
 30
-78.18699645996094
 70
   192
  0
VERTEX
  5
3DE
  8
0
 10
136.3630065917969
 20
-0.5870000123977661
 30
-78.18599700927734
 70
   192
  0
VERTEX
  5
3DF
  8
0
 10
136.3309936523438
 20
-6.658999919891357
 30
-77.5999984741211
 70
   192
  0
VERTEX
  5
3E0
  8
0
 10
136.3630065917969
 20
0.0
 30
-78.18599700927734
 70
   192
  0
VERTEX
  5
3E1
  8
0
 10
136.3139953613281
 20
-9.722000122070312
 30
-77.30500030517578
 70
   192
  0
VERTEX
  5
3E2
  8
0
 10
136.2949981689453
 20
-10.22500038146973
 30
-77.13800048828125
 70
   192
  0
VERTEX
  5
3E3
  8
0
 10
136.0019989013672
 20
-11.60900020599365
 30
-75.39299774169922
 70
   192
  0
VERTEX
  5
3E4
  8
0
 10
135.7299957275391
 20
-13.00899982452393
 30
-73.77400207519531
 70
   192
  0
VERTEX
  5
3E5
  8
0
 10
133.1940002441406
 20
-14.27000045776367
 30
-60.23300170898438
 70
   192
  0
VERTEX
  5
3E6
  8
0
 10
130.9320068359375
 20
-13.07800006866455
 30
-47.65000152587891
 70
   192
  0
VERTEX
  5
3E7
  8
0
 10
136.2729949951172
 20
-10.79800033569336
 30
-76.9469985961914
 70
   192
  0
VERTEX
  5
3E8
  8
0
 10
136.1529998779297
 20
-11.89400005340576
 30
-76.15399932861328
 70
   192
  0
VERTEX
  5
3E9
  8
0
 10
135.9649963378906
 20
-12.65799999237061
 30
-75.05699920654297
 70
   192
  0
VERTEX
  5
3EA
  8
0
 10
128.4709930419922
 20
-16.42300033569336
 30
-35.59700012207031
 70
   192
  0
VERTEX
  5
3EB
  8
0
 10
128.0090026855469
 20
-16.63400077819824
 30
-33.1879997253418
 70
   192
  0
VERTEX
  5
3EC
  8
0
 10
124.9020004272461
 20
-18.14399909973145
 30
-19.8439998626709
 70
   192
  0
VERTEX
  5
3ED
  8
0
 10
125.609001159668
 20
-17.79999923706055
 30
-22.88199996948242
 70
   192
  0
VERTEX
  5
3EE
  8
0
 10
122.1959991455078
 20
-19.56999969482422
 30
-10.06099987030029
 70
   192
  0
VERTEX
  5
3EF
  8
0
 10
121.7509994506836
 20
-19.80500030517578
 30
-8.451000213623047
 70
   192
  0
VERTEX
  5
3F0
  8
0
 10
119.1179962158203
 20
-20.72900009155273
 30
-2.016999959945679
 70
   192
  0
VERTEX
  5
3F1
  8
0
 10
118.1989974975586
 20
-20.97900009155273
 30
-0.4659999907016754
 70
   192
  0
VERTEX
  5
3F2
  8
0
 10
119.7279968261719
 20
-20.51499938964844
 30
-3.509000062942505
 70
   192
  0
VERTEX
  5
3F3
  8
0
 10
115.7750015258789
 20
-21.5310001373291
 30
2.216000080108643
 70
   192
  0
VERTEX
  5
3F4
  8
0
 10
114.8600006103516
 20
-21.73999977111816
 30
3.226000070571899
 70
   192
  0
VERTEX
  5
3F5
  8
0
 10
110.3830032348633
 20
-22.5930004119873
 30
5.471000194549561
 70
   192
  0
VERTEX
  5
3F6
  8
0
 10
109.8880004882812
 20
-22.68199920654297
 30
5.546999931335449
 70
   192
  0
VERTEX
  5
3F7
  8
0
 10
103.7929992675781
 20
-23.77799987792969
 30
6.486000061035156
 70
   192
  0
VERTEX
  5
3F8
  8
0
 10
92.5719985961914
 20
-24.61100006103516
 30
1.00600004196167
 70
   192
  0
VERTEX
  5
3F9
  8
0
 10
92.61799621582031
 20
-23.92000007629395
 30
-0.8360000252723694
 70
   192
  0
VERTEX
  5
3FA
  8
0
 10
99.70999908447266
 20
-24.51499938964844
 30
6.561999797821045
 70
   192
  0
VERTEX
  5
3FB
  8
0
 10
92.46499633789062
 20
-25.63899993896484
 30
5.144000053405762
 70
   192
  0
VERTEX
  5
3FC
  8
0
 10
92.57599639892578
 20
-25.77799987792969
 30
6.304999828338623
 70
   192
  0
VERTEX
  5
3FD
  8
0
 10
103.1269989013672
 20
-23.89800071716309
 30
6.499000072479248
 70
   192
  0
VERTEX
  5
3FE
  8
0
 10
131.0610046386719
 20
-15.24199962615967
 30
-49.10800170898438
 70
   192
  0
VERTEX
  5
3FF
  8
0
 62
     9
 10
0.0
 20
0.0
 30
0.0
 70
   128
 71
     3
 72
     2
 73
     1
  0
VERTEX
  5
400
  8
0
 62
     9
 10
0.0
 20
0.0
 30
0.0
 70
   128
 71
     6
 72
     5
 73
     4
  0
VERTEX
  5
401
  8
0
 62
     9
 10
0.0
 20
0.0
 30
0.0
 70
   128
 71
     9
 72
     8
 73
     7
  0
VERTEX
  5
402
  8
0
 62
     9
 10
0.0
 20
0.0
 30
0.0
 70
   128
 71
     7
 72
    10
 73
     9
  0
VERTEX
  5
403
  8
0
 62
     9
 10
0.0
 20
0.0
 30
0.0
 70
   128
 71
    12
 72
     6
 73
    11
  0
VERTEX
  5
404
  8
0
 62
     9
 10
0.0
 20
0.0
 30
0.0
 70
   128
 71
    12
 72
     1
 73
     7
  0
VERTEX
  5
405
  8
0
 62
     9
 10
0.0
 20
0.0
 30
0.0
 70
   128
 71
     6
 72
    12
 73
     8
  0
VERTEX
  5
406
  8
0
 62
     9
 10
0.0
 20
0.0
 30
0.0
 70
   128
 71
     8
 72
    13
 73
     6
  0
VERTEX
  5
407
  8
0
 62
     9
 10
0.0
 20
0.0
 30
0.0
 70
   128
 71
    14
 72
     8
 73
     9
  0
VERTEX
  5
408
  8
0
 62
     9
 10
0.0
 20
0.0
 30
0.0
 70
   128
 71
    16
 72
     9
 73
    15
  0
VERTEX
  5
409
  8
0
 62
     9
 10
0.0
 20
0.0
 30
0.0
 70
   128
 71
    17
 72
    14
 73
    16
  0
VERTEX
  5
40A
  8
0
 62
     9
 10
0.0
 20
0.0
 30
0.0
 70
   128
 71
     5
 72
     6
 73
    13
  0
VERTEX
  5
40B
  8
0
 62
     9
 10
0.0
 20
0.0
 30
0.0
 70
   128
 71
    18
 72
    13
 73
    14
  0
VERTEX
  5
40C
  8
0
 62
     9
 10
0.0
 20
0.0
 30
0.0
 70
   128
 71
    21
 72
    20
 73
    19
  0
VERTEX
  5
40D
  8
0
 62
     9
 10
0.0
 20
0.0
 30
0.0
 70
   128
 71
    24
 72
    23
 73
    22
  0
VERTEX
  5
40E
  8
0
 62
     9
 10
0.0
 20
0.0
 30
0.0
 70
   128
 71
    26
 72
    22
 73
    25
  0
VERTEX
  5
40F
  8
0
 62
     9
 10
0.0
 20
0.0
 30
0.0
 70
   128
 71
     3
 72
    22
 73
    23
  0
VERTEX
  5
410
  8
0
 62
     9
 10
0.0
 20
0.0
 30
0.0
 70
   128
 71
     3
 72
    11
 73
    22
  0
VERTEX
  5
411
  8
0
 62
     9
 10
0.0
 20
0.0
 30
0.0
 70
   128
 71
    11
 72
     4
 73
    25
  0
VERTEX
  5
412
  8
0
 62
     9
 10
0.0
 20
0.0
 30
0.0
 70
   128
 71
    29
 72
    28
 73
    27
  0
VERTEX
  5
413
  8
0
 62
     9
 10
0.0
 20
0.0
 30
0.0
 70
   128
 71
    31
 72
    30
 73
    27
  0
VERTEX
  5
414
  8
0
 62
     9
 10
0.0
 20
0.0
 30
0.0
 70
   128
 71
    24
 72
    29
 73
    30
  0
VERTEX
  5
415
  8
0
 62
     9
 10
0.0
 20
0.0
 30
0.0
 70
   128
 71
    32
 72
     2
 73
    23
  0
VERTEX
  5
416
  8
0
 62
     9
 10
0.0
 20
0.0
 30
0.0
 70
   128
 71
    23
 72
    30
 73
    32
  0
VERTEX
  5
417
  8
0
 62
     9
 10
0.0
 20
0.0
 30
0.0
 70
   128
 71
    33
 72
    32
 73
    31
  0
VERTEX
  5
418
  8
0
 62
     9
 10
0.0
 20
0.0
 30
0.0
 70
   128
 71
    35
 72
    31
 73
    34
  0
VERTEX
  5
419
  8
0
 62
     9
 10
0.0
 20
0.0
 30
0.0
 70
   128
 71
    38
 72
    37
 73
    36
  0
VERTEX
  5
41A
  8
0
 62
     9
 10
0.0
 20
0.0
 30
0.0
 70
   128
 71
    37
 72
    40
 73
    39
  0
VERTEX
  5
41B
  8
0
 62
     9
 10
0.0
 20
0.0
 30
0.0
 70
   128
 71
    35
 72
    36
 73
    41
  0
VERTEX
  5
41C
  8
0
 62
     9
 10
0.0
 20
0.0
 30
0.0
 70
   128
 71
    36
 72
    39
 73
    41
  0
VERTEX
  5
41D
  8
0
 62
     9
 10
0.0
 20
0.0
 30
0.0
 70
   128
 71
    32
 72
    33
 73
     1
  0
VERTEX
  5
41E
  8
0
 62
     9
 10
0.0
 20
0.0
 30
0.0
 70
   128
 71
    33
 72
    41
 73
     7
  0
VERTEX
  5
41F
  8
0
 62
     9
 10
0.0
 20
0.0
 30
0.0
 70
   128
 71
    39
 72
    43
 73
    42
  0
VERTEX
  5
420
  8
0
 62
     9
 10
0.0
 20
0.0
 30
0.0
 70
   128
 71
    40
 72
    44
 73
    43
  0
VERTEX
  5
421
  8
0
 62
     9
 10
0.0
 20
0.0
 30
0.0
 70
   128
 71
    45
 72
    43
 73
    44
  0
VERTEX
  5
422
  8
0
 62
     9
 10
0.0
 20
0.0
 30
0.0
 70
   128
 71
    42
 72
    10
 73
     7
  0
VERTEX
  5
423
  8
0
 62
     9
 10
0.0
 20
0.0
 30
0.0
 70
   128
 71
    42
 72
    46
 73
    10
  0
VERTEX
  5
424
  8
0
 62
     9
 10
0.0
 20
0.0
 30
0.0
 70
   128
 71
    43
 72
    45
 73
    46
  0
VERTEX
  5
425
  8
0
 62
     9
 10
0.0
 20
0.0
 30
0.0
 70
   128
 71
    47
 72
    20
 73
    21
  0
VERTEX
  5
426
  8
0
 62
     9
 10
0.0
 20
0.0
 30
0.0
 70
   128
 71
    21
 72
    48
 73
    47
  0
VERTEX
  5
427
  8
0
 62
     9
 10
0.0
 20
0.0
 30
0.0
 70
   128
 71
    47
 72
    49
 73
    20
  0
VERTEX
  5
428
  8
0
 62
     9
 10
0.0
 20
0.0
 30
0.0
 70
   128
 71
    50
 72
    21
 73
    15
  0
VERTEX
  5
429
  8
0
 62
     9
 10
0.0
 20
0.0
 30
0.0
 70
   128
 71
    50
 72
    51
 73
    21
  0
VERTEX
  5
42A
  8
0
 62
     9
 10
0.0
 20
0.0
 30
0.0
 70
   128
 71
    51
 72
    52
 73
    21
  0
VERTEX
  5
42B
  8
0
 62
     9
 10
0.0
 20
0.0
 30
0.0
 70
   128
 71
    54
 72
    53
 73
    15
  0
VERTEX
  5
42C
  8
0
 62
     9
 10
0.0
 20
0.0
 30
0.0
 70
   128
 71
    15
 72
    10
 73
    54
  0
VERTEX
  5
42D
  8
0
 62
     9
 10
0.0
 20
0.0
 30
0.0
 70
   128
 71
    53
 72
    55
 73
    15
  0
VERTEX
  5
42E
  8
0
 62
     9
 10
0.0
 20
0.0
 30
0.0
 70
   128
 71
    57
 72
    56
 73
    10
  0
VERTEX
  5
42F
  8
0
 62
     9
 10
0.0
 20
0.0
 30
0.0
 70
   128
 71
    56
 72
    58
 73
    10
  0
VERTEX
  5
430
  8
0
 62
     9
 10
0.0
 20
0.0
 30
0.0
 70
   128
 71
    10
 72
    46
 73
    57
  0
VERTEX
  5
431
  8
0
 62
     9
 10
0.0
 20
0.0
 30
0.0
 70
   128
 71
    60
 72
    59
 73
    46
  0
VERTEX
  5
432
  8
0
 62
     9
 10
0.0
 20
0.0
 30
0.0
 70
   128
 71
    59
 72
    61
 73
    46
  0
VERTEX
  5
433
  8
0
 62
     9
 10
0.0
 20
0.0
 30
0.0
 70
   128
 71
    46
 72
    45
 73
    60
  0
VERTEX
  5
434
  8
0
 62
     9
 10
0.0
 20
0.0
 30
0.0
 70
   128
 71
    63
 72
    45
 73
    62
  0
VERTEX
  5
435
  8
0
 62
     9
 10
0.0
 20
0.0
 30
0.0
 70
   128
 71
    65
 72
    64
 73
    45
  0
VERTEX
  5
436
  8
0
 62
     9
 10
0.0
 20
0.0
 30
0.0
 70
   128
 71
    45
 72
    63
 73
    65
  0
VERTEX
  5
437
  8
0
 62
     9
 10
0.0
 20
0.0
 30
0.0
 70
   128
 71
    68
 72
    67
 73
    66
  0
VERTEX
  5
438
  8
0
 62
     9
 10
0.0
 20
0.0
 30
0.0
 70
   128
 71
    66
 72
    62
 73
    68
  0
VERTEX
  5
439
  8
0
 62
     9
 10
0.0
 20
0.0
 30
0.0
 70
   128
 71
    68
 72
    69
 73
    67
  0
VERTEX
  5
43A
  8
0
 62
     9
 10
0.0
 20
0.0
 30
0.0
 70
   128
 71
    71
 72
    70
 73
    62
  0
VERTEX
  5
43B
  8
0
 62
     9
 10
0.0
 20
0.0
 30
0.0
 70
   128
 71
    62
 72
    66
 73
    71
  0
VERTEX
  5
43C
  8
0
 62
     9
 10
0.0
 20
0.0
 30
0.0
 70
   128
 71
    73
 72
    72
 73
    62
  0
VERTEX
  5
43D
  8
0
 62
     9
 10
0.0
 20
0.0
 30
0.0
 70
   128
 71
    72
 72
    74
 73
    62
  0
VERTEX
  5
43E
  8
0
 62
     9
 10
0.0
 20
0.0
 30
0.0
 70
   128
 71
    76
 72
    75
 73
    44
  0
VERTEX
  5
43F
  8
0
 62
     9
 10
0.0
 20
0.0
 30
0.0
 70
   128
 71
    75
 72
    77
 73
    44
  0
VERTEX
  5
440
  8
0
 62
     9
 10
0.0
 20
0.0
 30
0.0
 70
   128
 71
    77
 72
    73
 73
    44
  0
VERTEX
  5
441
  8
0
 62
     9
 10
0.0
 20
0.0
 30
0.0
 70
   128
 71
    79
 72
    78
 73
    40
  0
VERTEX
  5
442
  8
0
 62
     9
 10
0.0
 20
0.0
 30
0.0
 70
   128
 71
    80
 72
    76
 73
    40
  0
VERTEX
  5
443
  8
0
 62
     9
 10
0.0
 20
0.0
 30
0.0
 70
   128
 71
    40
 72
    78
 73
    80
  0
VERTEX
  5
444
  8
0
 62
     9
 10
0.0
 20
0.0
 30
0.0
 70
   128
 71
    82
 72
    81
 73
    37
  0
VERTEX
  5
445
  8
0
 62
     9
 10
0.0
 20
0.0
 30
0.0
 70
   128
 71
    81
 72
    79
 73
    37
  0
VERTEX
  5
446
  8
0
 62
     9
 10
0.0
 20
0.0
 30
0.0
 70
   128
 71
    83
 72
    82
 73
    38
  0
VERTEX
  5
447
  8
0
 62
     9
 10
0.0
 20
0.0
 30
0.0
 70
   128
 71
    38
 72
    34
 73
    83
  0
VERTEX
  5
448
  8
0
 62
     9
 10
0.0
 20
0.0
 30
0.0
 70
   128
 71
    27
 72
    28
 73
    84
  0
VERTEX
  5
449
  8
0
 62
     9
 10
0.0
 20
0.0
 30
0.0
 70
   128
 71
    86
 72
    85
 73
    34
  0
VERTEX
  5
44A
  8
0
 62
     9
 10
0.0
 20
0.0
 30
0.0
 70
   128
 71
    34
 72
    27
 73
    86
  0
VERTEX
  5
44B
  8
0
 62
     9
 10
0.0
 20
0.0
 30
0.0
 70
   128
 71
    89
 72
    88
 73
    87
  0
VERTEX
  5
44C
  8
0
 62
     9
 10
0.0
 20
0.0
 30
0.0
 70
   128
 71
    91
 72
    90
 73
    87
  0
VERTEX
  5
44D
  8
0
 62
     9
 10
0.0
 20
0.0
 30
0.0
 70
   128
 71
    87
 72
    92
 73
    91
  0
VERTEX
  5
44E
  8
0
 62
     9
 10
0.0
 20
0.0
 30
0.0
 70
   128
 71
    93
 72
    28
 73
    87
  0
VERTEX
  5
44F
  8
0
 62
     9
 10
0.0
 20
0.0
 30
0.0
 70
   128
 71
    87
 72
    88
 73
    93
  0
VERTEX
  5
450
  8
0
 62
     9
 10
0.0
 20
0.0
 30
0.0
 70
   128
 71
    28
 72
    92
 73
    87
  0
VERTEX
  5
451
  8
0
 62
     9
 10
0.0
 20
0.0
 30
0.0
 70
   128
 71
    93
 72
    84
 73
    28
  0
VERTEX
  5
452
  8
0
 62
     9
 10
0.0
 20
0.0
 30
0.0
 70
   128
 71
    92
 72
    28
 73
    29
  0
VERTEX
  5
453
  8
0
 62
     9
 10
0.0
 20
0.0
 30
0.0
 70
   128
 71
    29
 72
    94
 73
    92
  0
VERTEX
  5
454
  8
0
 62
     9
 10
0.0
 20
0.0
 30
0.0
 70
   128
 71
    95
 72
    29
 73
    24
  0
VERTEX
  5
455
  8
0
 62
     9
 10
0.0
 20
0.0
 30
0.0
 70
   128
 71
    24
 72
    96
 73
    95
  0
VERTEX
  5
456
  8
0
 62
     9
 10
0.0
 20
0.0
 30
0.0
 70
   128
 71
    98
 72
    97
 73
    24
  0
VERTEX
  5
457
  8
0
 62
     9
 10
0.0
 20
0.0
 30
0.0
 70
   128
 71
    97
 72
    99
 73
    24
  0
VERTEX
  5
458
  8
0
 62
     9
 10
0.0
 20
0.0
 30
0.0
 70
   128
 71
   101
 72
   100
 73
    26
  0
VERTEX
  5
459
  8
0
 62
     9
 10
0.0
 20
0.0
 30
0.0
 70
   128
 71
   100
 72
    98
 73
    26
  0
VERTEX
  5
45A
  8
0
 62
     9
 10
0.0
 20
0.0
 30
0.0
 70
   128
 71
   104
 72
   103
 73
   102
  0
VERTEX
  5
45B
  8
0
 62
     9
 10
0.0
 20
0.0
 30
0.0
 70
   128
 71
   102
 72
   101
 73
   105
  0
VERTEX
  5
45C
  8
0
 62
     9
 10
0.0
 20
0.0
 30
0.0
 70
   128
 71
   106
 72
   101
 73
   102
  0
VERTEX
  5
45D
  8
0
 62
     9
 10
0.0
 20
0.0
 30
0.0
 70
   128
 71
   108
 72
   107
 73
   102
  0
VERTEX
  5
45E
  8
0
 62
     9
 10
0.0
 20
0.0
 30
0.0
 70
   128
 71
   102
 72
   103
 73
   108
  0
VERTEX
  5
45F
  8
0
 62
     9
 10
0.0
 20
0.0
 30
0.0
 70
   128
 71
   102
 72
   107
 73
   106
  0
VERTEX
  5
460
  8
0
 62
     9
 10
0.0
 20
0.0
 30
0.0
 70
   128
 71
   102
 72
   105
 73
   104
  0
VERTEX
  5
461
  8
0
 62
     9
 10
0.0
 20
0.0
 30
0.0
 70
   128
 71
   105
 72
    25
 73
   109
  0
VERTEX
  5
462
  8
0
 62
     9
 10
0.0
 20
0.0
 30
0.0
 70
   128
 71
   110
 72
    25
 73
     4
  0
VERTEX
  5
463
  8
0
 62
     9
 10
0.0
 20
0.0
 30
0.0
 70
   128
 71
   110
 72
   109
 73
    25
  0
VERTEX
  5
464
  8
0
 62
     9
 10
0.0
 20
0.0
 30
0.0
 70
   128
 71
   111
 72
     4
 73
     5
  0
VERTEX
  5
465
  8
0
 62
     9
 10
0.0
 20
0.0
 30
0.0
 70
   128
 71
   111
 72
   112
 73
     4
  0
VERTEX
  5
466
  8
0
 62
     9
 10
0.0
 20
0.0
 30
0.0
 70
   128
 71
   113
 72
     5
 73
    18
  0
VERTEX
  5
467
  8
0
 62
     9
 10
0.0
 20
0.0
 30
0.0
 70
   128
 71
    18
 72
   114
 73
   113
  0
VERTEX
  5
468
  8
0
 62
     9
 10
0.0
 20
0.0
 30
0.0
 70
   128
 71
   116
 72
   115
 73
    17
  0
VERTEX
  5
469
  8
0
 62
     9
 10
0.0
 20
0.0
 30
0.0
 70
   128
 71
   117
 72
    18
 73
    17
  0
VERTEX
  5
46A
  8
0
 62
     9
 10
0.0
 20
0.0
 30
0.0
 70
   128
 71
    17
 72
   115
 73
   117
  0
VERTEX
  5
46B
  8
0
 62
     9
 10
0.0
 20
0.0
 30
0.0
 70
   128
 71
   118
 72
    17
 73
    19
  0
VERTEX
  5
46C
  8
0
 62
     9
 10
0.0
 20
0.0
 30
0.0
 70
   128
 71
    19
 72
   119
 73
   118
  0
VERTEX
  5
46D
  8
0
 62
     9
 10
0.0
 20
0.0
 30
0.0
 70
   128
 71
    19
 72
   120
 73
   119
  0
VERTEX
  5
46E
  8
0
 62
     9
 10
0.0
 20
0.0
 30
0.0
 70
   128
 71
   121
 72
    19
 73
    20
  0
VERTEX
  5
46F
  8
0
 62
     9
 10
0.0
 20
0.0
 30
0.0
 70
   128
 71
    20
 72
   122
 73
   121
  0
VERTEX
  5
470
  8
0
 62
     9
 10
0.0
 20
0.0
 30
0.0
 70
   128
 71
   124
 72
   123
 73
    20
  0
VERTEX
  5
471
  8
0
 62
     9
 10
0.0
 20
0.0
 30
0.0
 70
   128
 71
   123
 72
   126
 73
   125
  0
VERTEX
  5
472
  8
0
 62
     9
 10
0.0
 20
0.0
 30
0.0
 70
   128
 71
   126
 72
   127
 73
   125
  0
VERTEX
  5
473
  8
0
 62
     9
 10
0.0
 20
0.0
 30
0.0
 70
   128
 71
   125
 72
   128
 73
    20
  0
VERTEX
  5
474
  8
0
 62
     9
 10
0.0
 20
0.0
 30
0.0
 70
   128
 71
   125
 72
    20
 73
   123
  0
VERTEX
  5
475
  8
0
 62
     9
 10
0.0
 20
0.0
 30
0.0
 70
   128
 71
    20
 72
    49
 73
   124
  0
VERTEX
  5
476
  8
0
 62
     9
 10
0.0
 20
0.0
 30
0.0
 70
   128
 71
    20
 72
   128
 73
   122
  0
VERTEX
  5
477
  8
0
 62
     9
 10
0.0
 20
0.0
 30
0.0
 70
   128
 71
    19
 72
   121
 73
   120
  0
VERTEX
  5
478
  8
0
 62
     9
 10
0.0
 20
0.0
 30
0.0
 70
   128
 71
    17
 72
   118
 73
   116
  0
VERTEX
  5
479
  8
0
 62
     9
 10
0.0
 20
0.0
 30
0.0
 70
   128
 71
    18
 72
   117
 73
   114
  0
VERTEX
  5
47A
  8
0
 62
     9
 10
0.0
 20
0.0
 30
0.0
 70
   128
 71
     5
 72
   113
 73
   111
  0
VERTEX
  5
47B
  8
0
 62
     9
 10
0.0
 20
0.0
 30
0.0
 70
   128
 71
     4
 72
   112
 73
   110
  0
VERTEX
  5
47C
  8
0
 62
     9
 10
0.0
 20
0.0
 30
0.0
 70
   128
 71
   109
 72
   129
 73
   105
  0
VERTEX
  5
47D
  8
0
 62
     9
 10
0.0
 20
0.0
 30
0.0
 70
   128
 71
   105
 72
   129
 73
   104
  0
VERTEX
  5
47E
  8
0
 62
     9
 10
0.0
 20
0.0
 30
0.0
 70
   128
 71
    26
 72
   105
 73
   101
  0
VERTEX
  5
47F
  8
0
 62
     9
 10
0.0
 20
0.0
 30
0.0
 70
   128
 71
    24
 72
    26
 73
    98
  0
VERTEX
  5
480
  8
0
 62
     9
 10
0.0
 20
0.0
 30
0.0
 70
   128
 71
    24
 72
    99
 73
    96
  0
VERTEX
  5
481
  8
0
 62
     9
 10
0.0
 20
0.0
 30
0.0
 70
   128
 71
    29
 72
    95
 73
    94
  0
VERTEX
  5
482
  8
0
 62
     9
 10
0.0
 20
0.0
 30
0.0
 70
   128
 71
    87
 72
    90
 73
    89
  0
VERTEX
  5
483
  8
0
 62
     9
 10
0.0
 20
0.0
 30
0.0
 70
   128
 71
    84
 72
    86
 73
    27
  0
VERTEX
  5
484
  8
0
 62
     9
 10
0.0
 20
0.0
 30
0.0
 70
   128
 71
    34
 72
    85
 73
    83
  0
VERTEX
  5
485
  8
0
 62
     9
 10
0.0
 20
0.0
 30
0.0
 70
   128
 71
    37
 72
    38
 73
    82
  0
VERTEX
  5
486
  8
0
 62
     9
 10
0.0
 20
0.0
 30
0.0
 70
   128
 71
    40
 72
    37
 73
    79
  0
VERTEX
  5
487
  8
0
 62
     9
 10
0.0
 20
0.0
 30
0.0
 70
   128
 71
    44
 72
    40
 73
    76
  0
VERTEX
  5
488
  8
0
 62
     9
 10
0.0
 20
0.0
 30
0.0
 70
   128
 71
    62
 72
    44
 73
    73
  0
VERTEX
  5
489
  8
0
 62
     9
 10
0.0
 20
0.0
 30
0.0
 70
   128
 71
    62
 72
    74
 73
    68
  0
VERTEX
  5
48A
  8
0
 62
     9
 10
0.0
 20
0.0
 30
0.0
 70
   128
 71
    62
 72
    70
 73
    63
  0
VERTEX
  5
48B
  8
0
 62
     9
 10
0.0
 20
0.0
 30
0.0
 70
   128
 71
    45
 72
    64
 73
    60
  0
VERTEX
  5
48C
  8
0
 62
     9
 10
0.0
 20
0.0
 30
0.0
 70
   128
 71
    46
 72
    61
 73
    57
  0
VERTEX
  5
48D
  8
0
 62
     9
 10
0.0
 20
0.0
 30
0.0
 70
   128
 71
    10
 72
    58
 73
    54
  0
VERTEX
  5
48E
  8
0
 62
     9
 10
0.0
 20
0.0
 30
0.0
 70
   128
 71
    15
 72
    55
 73
    50
  0
VERTEX
  5
48F
  8
0
 62
     9
 10
0.0
 20
0.0
 30
0.0
 70
   128
 71
    21
 72
    52
 73
    48
  0
VERTEX
  5
490
  8
0
 62
     9
 10
0.0
 20
0.0
 30
0.0
 70
   128
 71
    46
 72
    42
 73
    43
  0
VERTEX
  5
491
  8
0
 62
     9
 10
0.0
 20
0.0
 30
0.0
 70
   128
 71
     7
 72
    41
 73
    42
  0
VERTEX
  5
492
  8
0
 62
     9
 10
0.0
 20
0.0
 30
0.0
 70
   128
 71
    44
 72
    62
 73
    45
  0
VERTEX
  5
493
  8
0
 62
     9
 10
0.0
 20
0.0
 30
0.0
 70
   128
 71
    43
 72
    39
 73
    40
  0
VERTEX
  5
494
  8
0
 62
     9
 10
0.0
 20
0.0
 30
0.0
 70
   128
 71
    42
 72
    41
 73
    39
  0
VERTEX
  5
495
  8
0
 62
     9
 10
0.0
 20
0.0
 30
0.0
 70
   128
 71
     7
 72
     1
 73
    33
  0
VERTEX
  5
496
  8
0
 62
     9
 10
0.0
 20
0.0
 30
0.0
 70
   128
 71
     1
 72
     2
 73
    32
  0
VERTEX
  5
497
  8
0
 62
     9
 10
0.0
 20
0.0
 30
0.0
 70
   128
 71
    41
 72
    33
 73
    35
  0
VERTEX
  5
498
  8
0
 62
     9
 10
0.0
 20
0.0
 30
0.0
 70
   128
 71
    39
 72
    36
 73
    37
  0
VERTEX
  5
499
  8
0
 62
     9
 10
0.0
 20
0.0
 30
0.0
 70
   128
 71
    36
 72
    35
 73
    38
  0
VERTEX
  5
49A
  8
0
 62
     9
 10
0.0
 20
0.0
 30
0.0
 70
   128
 71
    34
 72
    38
 73
    35
  0
VERTEX
  5
49B
  8
0
 62
     9
 10
0.0
 20
0.0
 30
0.0
 70
   128
 71
    31
 72
    35
 73
    33
  0
VERTEX
  5
49C
  8
0
 62
     9
 10
0.0
 20
0.0
 30
0.0
 70
   128
 71
    30
 72
    31
 73
    32
  0
VERTEX
  5
49D
  8
0
 62
     9
 10
0.0
 20
0.0
 30
0.0
 70
   128
 71
    30
 72
    23
 73
    24
  0
VERTEX
  5
49E
  8
0
 62
     9
 10
0.0
 20
0.0
 30
0.0
 70
   128
 71
    27
 72
    34
 73
    31
  0
VERTEX
  5
49F
  8
0
 62
     9
 10
0.0
 20
0.0
 30
0.0
 70
   128
 71
    27
 72
    30
 73
    29
  0
VERTEX
  5
4A0
  8
0
 62
     9
 10
0.0
 20
0.0
 30
0.0
 70
   128
 71
    25
 72
    22
 73
    11
  0
VERTEX
  5
4A1
  8
0
 62
     9
 10
0.0
 20
0.0
 30
0.0
 70
   128
 71
    23
 72
     2
 73
     3
  0
VERTEX
  5
4A2
  8
0
 62
     9
 10
0.0
 20
0.0
 30
0.0
 70
   128
 71
    25
 72
   105
 73
    26
  0
VERTEX
  5
4A3
  8
0
 62
     9
 10
0.0
 20
0.0
 30
0.0
 70
   128
 71
    22
 72
    26
 73
    24
  0
VERTEX
  5
4A4
  8
0
 62
     9
 10
0.0
 20
0.0
 30
0.0
 70
   128
 71
    19
 72
    16
 73
    21
  0
VERTEX
  5
4A5
  8
0
 62
     9
 10
0.0
 20
0.0
 30
0.0
 70
   128
 71
    14
 72
    17
 73
    18
  0
VERTEX
  5
4A6
  8
0
 62
     9
 10
0.0
 20
0.0
 30
0.0
 70
   128
 71
    13
 72
    18
 73
     5
  0
VERTEX
  5
4A7
  8
0
 62
     9
 10
0.0
 20
0.0
 30
0.0
 70
   128
 71
    16
 72
    19
 73
    17
  0
VERTEX
  5
4A8
  8
0
 62
     9
 10
0.0
 20
0.0
 30
0.0
 70
   128
 71
    15
 72
    21
 73
    16
  0
VERTEX
  5
4A9
  8
0
 62
     9
 10
0.0
 20
0.0
 30
0.0
 70
   128
 71
     9
 72
    16
 73
    14
  0
VERTEX
  5
4AA
  8
0
 62
     9
 10
0.0
 20
0.0
 30
0.0
 70
   128
 71
     8
 72
    14
 73
    13
  0
VERTEX
  5
4AB
  8
0
 62
     9
 10
0.0
 20
0.0
 30
0.0
 70
   128
 71
     7
 72
     8
 73
    12
  0
VERTEX
  5
4AC
  8
0
 62
     9
 10
0.0
 20
0.0
 30
0.0
 70
   128
 71
    11
 72
     3
 73
    12
  0
VERTEX
  5
4AD
  8
0
 62
     9
 10
0.0
 20
0.0
 30
0.0
 70
   128
 71
    10
 72
    15
 73
     9
  0
VERTEX
  5
4AE
  8
0
 62
     9
 10
0.0
 20
0.0
 30
0.0
 70
   128
 71
     4
 72
    11
 73
     6
  0
VERTEX
  5
4AF
  8
0
 62
     9
 10
0.0
 20
0.0
 30
0.0
 70
   128
 71
     1
 72
    12
 73
     3
  0
SEQEND
  5
4B0
  8
0
 62
     9
  0
ENDBLK
  5
4B3
  8
0
  0
BLOCK
  8
0
  2
E3_NODE_18_
 70
     0
 10
0.0
 20
0.0
 30
0.0
  3
E3_NODE_18_
  1

  0
POLYLINE
  5
4B5
  8
0
 62
     9
 66
     1
 10
0.0
 20
0.0
 30
0.0
 70
    64
 71
    34
 72
    32
  0
VERTEX
  5
4B6
  8
0
 10
134.3209991455078
 20
15.27000045776367
 30
-60.11600112915039
 70
   192
  0
VERTEX
  5
4B7
  8
0
 10
136.8459930419922
 20
13.97299957275391
 30
-73.65799713134766
 70
   192
  0
VERTEX
  5
4B8
  8
0
 10
135.7299957275391
 20
13.00899982452393
 30
-73.77400207519531
 70
   192
  0
VERTEX
  5
4B9
  8
0
 10
129.1549987792969
 20
17.60000038146973
 30
-33.02700042724609
 70
   192
  0
VERTEX
  5
4BA
  8
0
 10
131.0610046386719
 20
15.24199962615967
 30
-49.10800170898438
 70
   192
  0
VERTEX
  5
4BB
  8
0
 10
133.1940002441406
 20
14.27000045776367
 30
-60.23300170898438
 70
   192
  0
VERTEX
  5
4BC
  8
0
 10
128.0090026855469
 20
16.63400077819824
 30
-33.1879997253418
 70
   192
  0
VERTEX
  5
4BD
  8
0
 10
125.609001159668
 20
17.79999923706055
 30
-22.88199996948242
 70
   192
  0
VERTEX
  5
4BE
  8
0
 10
127.6620025634766
 20
18.15299987792969
 30
-26.72500038146973
 70
   192
  0
VERTEX
  5
4BF
  8
0
 10
125.9779968261719
 20
18.77700042724609
 30
-19.61100006103516
 70
   192
  0
VERTEX
  5
4C0
  8
0
 10
124.9020004272461
 20
18.14399909973145
 30
-19.8439998626709
 70
   192
  0
VERTEX
  5
4C1
  8
0
 10
122.1959991455078
 20
19.56999969482422
 30
-10.06099987030029
 70
   192
  0
VERTEX
  5
4C2
  8
0
 10
122.3899993896484
 20
19.9330005645752
 30
-8.223999977111816
 70
   192
  0
VERTEX
  5
4C3
  8
0
 10
121.7509994506836
 20
19.80500030517578
 30
-8.451000213623047
 70
   192
  0
VERTEX
  5
4C4
  8
0
 10
119.7279968261719
 20
20.51499938964844
 30
-3.509000062942505
 70
   192
  0
VERTEX
  5
4C5
  8
0
 10
119.4440002441406
 20
20.7450008392334
 30
-1.827999949455261
 70
   192
  0
VERTEX
  5
4C6
  8
0
 10
118.1989974975586
 20
20.97900009155273
 30
-0.4659999907016754
 70
   192
  0
VERTEX
  5
4C7
  8
0
 10
118.4609985351562
 20
20.98500061035156
 30
-0.2840000092983246
 70
   192
  0
VERTEX
  5
4C8
  8
0
 10
119.0380020141602
 20
20.8439998626709
 30
-1.190000057220459
 70
   192
  0
VERTEX
  5
4C9
  8
0
 10
119.1179962158203
 20
20.72900009155273
 30
-2.016999959945679
 70
   192
  0
VERTEX
  5
4CA
  8
0
 10
115.7750015258789
 20
21.5310001373291
 30
2.216000080108643
 70
   192
  0
VERTEX
  5
4CB
  8
0
 10
114.984001159668
 20
21.74200057983398
 30
3.391999959945679
 70
   192
  0
VERTEX
  5
4CC
  8
0
 10
114.8600006103516
 20
21.73999977111816
 30
3.226000070571899
 70
   192
  0
VERTEX
  5
4CD
  8
0
 10
110.3830032348633
 20
22.5930004119873
 30
5.471000194549561
 70
   192
  0
VERTEX
  5
4CE
  8
0
 10
110.9869995117188
 20
22.49399948120117
 30
5.348999977111816
 70
   192
  0
VERTEX
  5
4CF
  8
0
 10
110.4290008544922
 20
22.59900093078613
 30
5.623000144958496
 70
   192
  0
VERTEX
  5
4D0
  8
0
 10
103.8000030517578
 20
23.7859992980957
 30
6.61899995803833
 70
   192
  0
VERTEX
  5
4D1
  8
0
 10
109.8880004882812
 20
22.68199920654297
 30
5.546999931335449
 70
   192
  0
VERTEX
  5
4D2
  8
0
 10
99.70999908447266
 20
24.52199935913086
 30
6.689000129699707
 70
   192
  0
VERTEX
  5
4D3
  8
0
 10
103.1269989013672
 20
23.89800071716309
 30
6.499000072479248
 70
   192
  0
VERTEX
  5
4D4
  8
0
 10
103.7929992675781
 20
23.77799987792969
 30
6.486000061035156
 70
   192
  0
VERTEX
  5
4D5
  8
0
 10
99.70999908447266
 20
24.51499938964844
 30
6.561999797821045
 70
   192
  0
VERTEX
  5
4D6
  8
0
 10
92.57599639892578
 20
25.77799987792969
 30
6.304999828338623
 70
   192
  0
VERTEX
  5
4D7
  8
0
 10
92.59700012207031
 20
25.7810001373291
 30
6.440999984741211
 70
   192
  0
VERTEX
  5
4D8
  8
0
 62
     9
 10
0.0
 20
0.0
 30
0.0
 70
   128
 71
     3
 72
     2
 73
     1
  0
VERTEX
  5
4D9
  8
0
 62
     9
 10
0.0
 20
0.0
 30
0.0
 70
   128
 71
     5
 72
     1
 73
     4
  0
VERTEX
  5
4DA
  8
0
 62
     9
 10
0.0
 20
0.0
 30
0.0
 70
   128
 71
     5
 72
     6
 73
     1
  0
VERTEX
  5
4DB
  8
0
 62
     9
 10
0.0
 20
0.0
 30
0.0
 70
   128
 71
     9
 72
     8
 73
     7
  0
VERTEX
  5
4DC
  8
0
 62
     9
 10
0.0
 20
0.0
 30
0.0
 70
   128
 71
     9
 72
    10
 73
     8
  0
VERTEX
  5
4DD
  8
0
 62
     9
 10
0.0
 20
0.0
 30
0.0
 70
   128
 71
     7
 72
     4
 73
     9
  0
VERTEX
  5
4DE
  8
0
 62
     9
 10
0.0
 20
0.0
 30
0.0
 70
   128
 71
    12
 72
    11
 73
    10
  0
VERTEX
  5
4DF
  8
0
 62
     9
 10
0.0
 20
0.0
 30
0.0
 70
   128
 71
    10
 72
    13
 73
    12
  0
VERTEX
  5
4E0
  8
0
 62
     9
 10
0.0
 20
0.0
 30
0.0
 70
   128
 71
    15
 72
    14
 73
    13
  0
VERTEX
  5
4E1
  8
0
 62
     9
 10
0.0
 20
0.0
 30
0.0
 70
   128
 71
    13
 72
    16
 73
    15
  0
VERTEX
  5
4E2
  8
0
 62
     9
 10
0.0
 20
0.0
 30
0.0
 70
   128
 71
    19
 72
    18
 73
    17
  0
VERTEX
  5
4E3
  8
0
 62
     9
 10
0.0
 20
0.0
 30
0.0
 70
   128
 71
    17
 72
    20
 73
    19
  0
VERTEX
  5
4E4
  8
0
 62
     9
 10
0.0
 20
0.0
 30
0.0
 70
   128
 71
    21
 72
    17
 73
    18
  0
VERTEX
  5
4E5
  8
0
 62
     9
 10
0.0
 20
0.0
 30
0.0
 70
   128
 71
    18
 72
    22
 73
    21
  0
VERTEX
  5
4E6
  8
0
 62
     9
 10
0.0
 20
0.0
 30
0.0
 70
   128
 71
    25
 72
    24
 73
    23
  0
VERTEX
  5
4E7
  8
0
 62
     9
 10
0.0
 20
0.0
 30
0.0
 70
   128
 71
    25
 72
    26
 73
    24
  0
VERTEX
  5
4E8
  8
0
 62
     9
 10
0.0
 20
0.0
 30
0.0
 70
   128
 71
    28
 72
    26
 73
    27
  0
VERTEX
  5
4E9
  8
0
 62
     9
 10
0.0
 20
0.0
 30
0.0
 70
   128
 71
    28
 72
    24
 73
    26
  0
VERTEX
  5
4EA
  8
0
 62
     9
 10
0.0
 20
0.0
 30
0.0
 70
   128
 71
    30
 72
    27
 73
    29
  0
VERTEX
  5
4EB
  8
0
 62
     9
 10
0.0
 20
0.0
 30
0.0
 70
   128
 71
    30
 72
    31
 73
    27
  0
VERTEX
  5
4EC
  8
0
 62
     9
 10
0.0
 20
0.0
 30
0.0
 70
   128
 71
    34
 72
    33
 73
    32
  0
VERTEX
  5
4ED
  8
0
 62
     9
 10
0.0
 20
0.0
 30
0.0
 70
   128
 71
    32
 72
    29
 73
    34
  0
VERTEX
  5
4EE
  8
0
 62
     9
 10
0.0
 20
0.0
 30
0.0
 70
   128
 71
    29
 72
    32
 73
    30
  0
VERTEX
  5
4EF
  8
0
 62
     9
 10
0.0
 20
0.0
 30
0.0
 70
   128
 71
    27
 72
    31
 73
    28
  0
VERTEX
  5
4F0
  8
0
 62
     9
 10
0.0
 20
0.0
 30
0.0
 70
   128
 71
    23
 72
    22
 73
    25
  0
VERTEX
  5
4F1
  8
0
 62
     9
 10
0.0
 20
0.0
 30
0.0
 70
   128
 71
    22
 72
    23
 73
    21
  0
VERTEX
  5
4F2
  8
0
 62
     9
 10
0.0
 20
0.0
 30
0.0
 70
   128
 71
    20
 72
    16
 73
    19
  0
VERTEX
  5
4F3
  8
0
 62
     9
 10
0.0
 20
0.0
 30
0.0
 70
   128
 71
    16
 72
    20
 73
    15
  0
VERTEX
  5
4F4
  8
0
 62
     9
 10
0.0
 20
0.0
 30
0.0
 70
   128
 71
    13
 72
    14
 73
    12
  0
VERTEX
  5
4F5
  8
0
 62
     9
 10
0.0
 20
0.0
 30
0.0
 70
   128
 71
    10
 72
    11
 73
     8
  0
VERTEX
  5
4F6
  8
0
 62
     9
 10
0.0
 20
0.0
 30
0.0
 70
   128
 71
     4
 72
     7
 73
     5
  0
VERTEX
  5
4F7
  8
0
 62
     9
 10
0.0
 20
0.0
 30
0.0
 70
   128
 71
     1
 72
     6
 73
     3
  0
SEQEND
  5
4F8
  8
0
 62
     9
  0
ENDBLK
  5
4FB
  8
0
  0
BLOCK
  8
0
  2
E3_NODE_19_
 70
     0
 10
0.0
 20
0.0
 30
0.0
  3
E3_NODE_19_
  1

  0
POLYLINE
  5
4FD
  8
0
 62
     9
 66
     1
 10
0.0
 20
0.0
 30
0.0
 70
    64
 71
    35
 72
    33
  0
VERTEX
  5
4FE
  8
0
 10
134.3209991455078
 20
-15.27000045776367
 30
-60.11600112915039
 70
   192
  0
VERTEX
  5
4FF
  8
0
 10
133.1940002441406
 20
-14.27000045776367
 30
-60.23300170898438
 70
   192
  0
VERTEX
  5
500
  8
0
 10
135.7299957275391
 20
-13.00899982452393
 30
-73.77400207519531
 70
   192
  0
VERTEX
  5
501
  8
0
 10
129.1549987792969
 20
-17.60000038146973
 30
-33.02700042724609
 70
   192
  0
VERTEX
  5
502
  8
0
 10
128.4709930419922
 20
-16.42300033569336
 30
-35.59700012207031
 70
   192
  0
VERTEX
  5
503
  8
0
 10
131.0610046386719
 20
-15.24199962615967
 30
-49.10800170898438
 70
   192
  0
VERTEX
  5
504
  8
0
 10
128.0090026855469
 20
-16.63400077819824
 30
-33.1879997253418
 70
   192
  0
VERTEX
  5
505
  8
0
 10
125.9779968261719
 20
-18.77700042724609
 30
-19.61100006103516
 70
   192
  0
VERTEX
  5
506
  8
0
 10
124.9020004272461
 20
-18.14399909973145
 30
-19.8439998626709
 70
   192
  0
VERTEX
  5
507
  8
0
 10
125.609001159668
 20
-17.79999923706055
 30
-22.88199996948242
 70
   192
  0
VERTEX
  5
508
  8
0
 10
127.6620025634766
 20
-18.15299987792969
 30
-26.72500038146973
 70
   192
  0
VERTEX
  5
509
  8
0
 10
122.3899993896484
 20
-19.9330005645752
 30
-8.223999977111816
 70
   192
  0
VERTEX
  5
50A
  8
0
 10
122.1959991455078
 20
-19.56999969482422
 30
-10.06099987030029
 70
   192
  0
VERTEX
  5
50B
  8
0
 10
121.7509994506836
 20
-19.80500030517578
 30
-8.451000213623047
 70
   192
  0
VERTEX
  5
50C
  8
0
 10
119.4440002441406
 20
-20.7450008392334
 30
-1.827999949455261
 70
   192
  0
VERTEX
  5
50D
  8
0
 10
119.7279968261719
 20
-20.51499938964844
 30
-3.509000062942505
 70
   192
  0
VERTEX
  5
50E
  8
0
 10
119.1179962158203
 20
-20.72900009155273
 30
-2.016999959945679
 70
   192
  0
VERTEX
  5
50F
  8
0
 10
118.1989974975586
 20
-20.97900009155273
 30
-0.4659999907016754
 70
   192
  0
VERTEX
  5
510
  8
0
 10
119.0380020141602
 20
-20.8439998626709
 30
-1.190000057220459
 70
   192
  0
VERTEX
  5
511
  8
0
 10
118.4609985351562
 20
-20.98500061035156
 30
-0.2840000092983246
 70
   192
  0
VERTEX
  5
512
  8
0
 10
114.984001159668
 20
-21.74200057983398
 30
3.391999959945679
 70
   192
  0
VERTEX
  5
513
  8
0
 10
115.7750015258789
 20
-21.5310001373291
 30
2.216000080108643
 70
   192
  0
VERTEX
  5
514
  8
0
 10
114.8600006103516
 20
-21.73999977111816
 30
3.226000070571899
 70
   192
  0
VERTEX
  5
515
  8
0
 10
110.9869995117188
 20
-22.49399948120117
 30
5.348999977111816
 70
   192
  0
VERTEX
  5
516
  8
0
 10
110.3830032348633
 20
-22.5930004119873
 30
5.471000194549561
 70
   192
  0
VERTEX
  5
517
  8
0
 10
103.8000030517578
 20
-23.7859992980957
 30
6.61899995803833
 70
   192
  0
VERTEX
  5
518
  8
0
 10
103.7929992675781
 20
-23.77799987792969
 30
6.486000061035156
 70
   192
  0
VERTEX
  5
519
  8
0
 10
109.8880004882812
 20
-22.68199920654297
 30
5.546999931335449
 70
   192
  0
VERTEX
  5
51A
  8
0
 10
110.4290008544922
 20
-22.59900093078613
 30
5.623000144958496
 70
   192
  0
VERTEX
  5
51B
  8
0
 10
99.70999908447266
 20
-24.52199935913086
 30
6.689000129699707
 70
   192
  0
VERTEX
  5
51C
  8
0
 10
99.70999908447266
 20
-24.51499938964844
 30
6.561999797821045
 70
   192
  0
VERTEX
  5
51D
  8
0
 10
103.1269989013672
 20
-23.89800071716309
 30
6.499000072479248
 70
   192
  0
VERTEX
  5
51E
  8
0
 10
92.59700012207031
 20
-25.7810001373291
 30
6.440999984741211
 70
   192
  0
VERTEX
  5
51F
  8
0
 10
92.57599639892578
 20
-25.77799987792969
 30
6.304999828338623
 70
   192
  0
VERTEX
  5
520
  8
0
 10
136.8459930419922
 20
-13.97299957275391
 30
-73.65799713134766
 70
   192
  0
VERTEX
  5
521
  8
0
 62
     9
 10
0.0
 20
0.0
 30
0.0
 70
   128
 71
     3
 72
     2
 73
     1
  0
VERTEX
  5
522
  8
0
 62
     9
 10
0.0
 20
0.0
 30
0.0
 70
   128
 71
     6
 72
     5
 73
     4
  0
VERTEX
  5
523
  8
0
 62
     9
 10
0.0
 20
0.0
 30
0.0
 70
   128
 71
     4
 72
     1
 73
     6
  0
VERTEX
  5
524
  8
0
 62
     9
 10
0.0
 20
0.0
 30
0.0
 70
   128
 71
     5
 72
     7
 73
     4
  0
VERTEX
  5
525
  8
0
 62
     9
 10
0.0
 20
0.0
 30
0.0
 70
   128
 71
    10
 72
     9
 73
     8
  0
VERTEX
  5
526
  8
0
 62
     9
 10
0.0
 20
0.0
 30
0.0
 70
   128
 71
    11
 72
     4
 73
     7
  0
VERTEX
  5
527
  8
0
 62
     9
 10
0.0
 20
0.0
 30
0.0
 70
   128
 71
     7
 72
    10
 73
    11
  0
VERTEX
  5
528
  8
0
 62
     9
 10
0.0
 20
0.0
 30
0.0
 70
   128
 71
    13
 72
    12
 73
     8
  0
VERTEX
  5
529
  8
0
 62
     9
 10
0.0
 20
0.0
 30
0.0
 70
   128
 71
    13
 72
    14
 73
    12
  0
VERTEX
  5
52A
  8
0
 62
     9
 10
0.0
 20
0.0
 30
0.0
 70
   128
 71
    16
 72
    15
 73
    12
  0
VERTEX
  5
52B
  8
0
 62
     9
 10
0.0
 20
0.0
 30
0.0
 70
   128
 71
    16
 72
    17
 73
    15
  0
VERTEX
  5
52C
  8
0
 62
     9
 10
0.0
 20
0.0
 30
0.0
 70
   128
 71
    19
 72
    17
 73
    18
  0
VERTEX
  5
52D
  8
0
 62
     9
 10
0.0
 20
0.0
 30
0.0
 70
   128
 71
    19
 72
    15
 73
    17
  0
VERTEX
  5
52E
  8
0
 62
     9
 10
0.0
 20
0.0
 30
0.0
 70
   128
 71
    22
 72
    21
 73
    20
  0
VERTEX
  5
52F
  8
0
 62
     9
 10
0.0
 20
0.0
 30
0.0
 70
   128
 71
    22
 72
    23
 73
    21
  0
VERTEX
  5
530
  8
0
 62
     9
 10
0.0
 20
0.0
 30
0.0
 70
   128
 71
    24
 72
    21
 73
    23
  0
VERTEX
  5
531
  8
0
 62
     9
 10
0.0
 20
0.0
 30
0.0
 70
   128
 71
    23
 72
    25
 73
    24
  0
VERTEX
  5
532
  8
0
 62
     9
 10
0.0
 20
0.0
 30
0.0
 70
   128
 71
    28
 72
    27
 73
    26
  0
VERTEX
  5
533
  8
0
 62
     9
 10
0.0
 20
0.0
 30
0.0
 70
   128
 71
    26
 72
    29
 73
    28
  0
VERTEX
  5
534
  8
0
 62
     9
 10
0.0
 20
0.0
 30
0.0
 70
   128
 71
    32
 72
    31
 73
    30
  0
VERTEX
  5
535
  8
0
 62
     9
 10
0.0
 20
0.0
 30
0.0
 70
   128
 71
    30
 72
    26
 73
    32
  0
VERTEX
  5
536
  8
0
 62
     9
 10
0.0
 20
0.0
 30
0.0
 70
   128
 71
    33
 72
    30
 73
    31
  0
VERTEX
  5
537
  8
0
 62
     9
 10
0.0
 20
0.0
 30
0.0
 70
   128
 71
    31
 72
    34
 73
    33
  0
VERTEX
  5
538
  8
0
 62
     9
 10
0.0
 20
0.0
 30
0.0
 70
   128
 71
    26
 72
    27
 73
    32
  0
VERTEX
  5
539
  8
0
 62
     9
 10
0.0
 20
0.0
 30
0.0
 70
   128
 71
    29
 72
    25
 73
    28
  0
VERTEX
  5
53A
  8
0
 62
     9
 10
0.0
 20
0.0
 30
0.0
 70
   128
 71
    25
 72
    29
 73
    24
  0
VERTEX
  5
53B
  8
0
 62
     9
 10
0.0
 20
0.0
 30
0.0
 70
   128
 71
    20
 72
    18
 73
    22
  0
VERTEX
  5
53C
  8
0
 62
     9
 10
0.0
 20
0.0
 30
0.0
 70
   128
 71
    18
 72
    20
 73
    19
  0
VERTEX
  5
53D
  8
0
 62
     9
 10
0.0
 20
0.0
 30
0.0
 70
   128
 71
    12
 72
    14
 73
    16
  0
VERTEX
  5
53E
  8
0
 62
     9
 10
0.0
 20
0.0
 30
0.0
 70
   128
 71
     8
 72
     9
 73
    13
  0
VERTEX
  5
53F
  8
0
 62
     9
 10
0.0
 20
0.0
 30
0.0
 70
   128
 71
     8
 72
    11
 73
    10
  0
VERTEX
  5
540
  8
0
 62
     9
 10
0.0
 20
0.0
 30
0.0
 70
   128
 71
     1
 72
     2
 73
     6
  0
VERTEX
  5
541
  8
0
 62
     9
 10
0.0
 20
0.0
 30
0.0
 70
   128
 71
     1
 72
    35
 73
     3
  0
SEQEND
  5
542
  8
0
 62
     9
  0
ENDBLK
  5
545
  8
0
  0
BLOCK
  8
0
  2
E3_NODE_20_
 70
     0
 10
0.0
 20
0.0
 30
0.0
  3
E3_NODE_20_
  1

  0
POLYLINE
  5
547
  8
0
 62
     9
 66
     1
 10
0.0
 20
0.0
 30
0.0
 70
    64
 71
    12
 72
    10
  0
VERTEX
  5
548
  8
0
 10
137.4100036621094
 20
11.47399997711182
 30
-77.50499725341797
 70
   192
  0
VERTEX
  5
549
  8
0
 10
137.4420013427734
 20
9.883000373840332
 30
-78.09500122070312
 70
   192
  0
VERTEX
  5
54A
  8
0
 10
136.2920074462891
 20
10.22599983215332
 30
-77.12100219726562
 70
   192
  0
VERTEX
  5
54B
  8
0
 10
136.3139953613281
 20
9.722000122070312
 30
-77.30500030517578
 70
   192
  0
VERTEX
  5
54C
  8
0
 10
136.2579956054688
 20
11.00100040435791
 30
-76.83899688720703
 70
   192
  0
VERTEX
  5
54D
  8
0
 10
136.125
 20
12.05099964141846
 30
-75.98500061035156
 70
   192
  0
VERTEX
  5
54E
  8
0
 10
135.9259948730469
 20
12.75300025939941
 30
-74.83799743652344
 70
   192
  0
VERTEX
  5
54F
  8
0
 10
137.1540069580078
 20
13.30099964141846
 30
-75.5719985961914
 70
   192
  0
VERTEX
  5
550
  8
0
 10
137.0679931640625
 20
13.65299987792969
 30
-74.98999786376953
 70
   192
  0
VERTEX
  5
551
  8
0
 10
136.8459930419922
 20
13.97299957275391
 30
-73.65799713134766
 70
   192
  0
VERTEX
  5
552
  8
0
 10
135.7299957275391
 20
13.00899982452393
 30
-73.77400207519531
 70
   192
  0
VERTEX
  5
553
  8
0
 10
137.2819976806641
 20
12.77999973297119
 30
-76.43000030517578
 70
   192
  0
VERTEX
  5
554
  8
0
 62
     9
 10
0.0
 20
0.0
 30
0.0
 70
   128
 71
     3
 72
     2
 73
     1
  0
VERTEX
  5
555
  8
0
 62
     9
 10
0.0
 20
0.0
 30
0.0
 70
   128
 71
     3
 72
     4
 73
     2
  0
VERTEX
  5
556
  8
0
 62
     9
 10
0.0
 20
0.0
 30
0.0
 70
   128
 71
     6
 72
     5
 73
     1
  0
VERTEX
  5
557
  8
0
 62
     9
 10
0.0
 20
0.0
 30
0.0
 70
   128
 71
     8
 72
     7
 73
     6
  0
VERTEX
  5
558
  8
0
 62
     9
 10
0.0
 20
0.0
 30
0.0
 70
   128
 71
     8
 72
     9
 73
     7
  0
VERTEX
  5
559
  8
0
 62
     9
 10
0.0
 20
0.0
 30
0.0
 70
   128
 71
     7
 72
     9
 73
    10
  0
VERTEX
  5
55A
  8
0
 62
     9
 10
0.0
 20
0.0
 30
0.0
 70
   128
 71
    10
 72
    11
 73
     7
  0
VERTEX
  5
55B
  8
0
 62
     9
 10
0.0
 20
0.0
 30
0.0
 70
   128
 71
     6
 72
    12
 73
     8
  0
VERTEX
  5
55C
  8
0
 62
     9
 10
0.0
 20
0.0
 30
0.0
 70
   128
 71
     1
 72
    12
 73
     6
  0
VERTEX
  5
55D
  8
0
 62
     9
 10
0.0
 20
0.0
 30
0.0
 70
   128
 71
     1
 72
     5
 73
     3
  0
SEQEND
  5
55E
  8
0
 62
     9
  0
ENDBLK
  5
561
  8
0
  0
BLOCK
  8
0
  2
E3_NODE_21_
 70
     0
 10
0.0
 20
0.0
 30
0.0
  3
E3_NODE_21_
  1

  0
POLYLINE
  5
563
  8
0
 62
     9
 66
     1
 10
0.0
 20
0.0
 30
0.0
 70
    64
 71
    12
 72
    10
  0
VERTEX
  5
564
  8
0
 10
137.4960021972656
 20
0.5230000019073486
 30
-79.0009994506836
 70
   192
  0
VERTEX
  5
565
  8
0
 10
136.3630065917969
 20
0.5139999985694885
 30
-78.18699645996094
 70
   192
  0
VERTEX
  5
566
  8
0
 10
136.3300018310547
 20
6.658999919891357
 30
-77.5979995727539
 70
   192
  0
VERTEX
  5
567
  8
0
 10
137.4420013427734
 20
9.883000373840332
 30
-78.09500122070312
 70
   192
  0
VERTEX
  5
568
  8
0
 10
137.4960021972656
 20
0.0
 30
-79.0009994506836
 70
   192
  0
VERTEX
  5
569
  8
0
 10
137.4960021972656
 20
-0.5960000157356262
 30
-79.0
 70
   192
  0
VERTEX
  5
56A
  8
0
 10
136.3630065917969
 20
-0.5870000123977661
 30
-78.18599700927734
 70
   192
  0
VERTEX
  5
56B
  8
0
 10
136.3630065917969
 20
0.0
 30
-78.18599700927734
 70
   192
  0
VERTEX
  5
56C
  8
0
 10
137.4420013427734
 20
-9.883000373840332
 30
-78.09500122070312
 70
   192
  0
VERTEX
  5
56D
  8
0
 10
136.3309936523438
 20
-6.658999919891357
 30
-77.5999984741211
 70
   192
  0
VERTEX
  5
56E
  8
0
 10
136.3139953613281
 20
-9.722000122070312
 30
-77.30500030517578
 70
   192
  0
VERTEX
  5
56F
  8
0
 10
136.3139953613281
 20
9.722000122070312
 30
-77.30500030517578
 70
   192
  0
VERTEX
  5
570
  8
0
 62
     9
 10
0.0
 20
0.0
 30
0.0
 70
   128
 71
     3
 72
     2
 73
     1
  0
VERTEX
  5
571
  8
0
 62
     9
 10
0.0
 20
0.0
 30
0.0
 70
   128
 71
     1
 72
     4
 73
     3
  0
VERTEX
  5
572
  8
0
 62
     9
 10
0.0
 20
0.0
 30
0.0
 70
   128
 71
     7
 72
     6
 73
     5
  0
VERTEX
  5
573
  8
0
 62
     9
 10
0.0
 20
0.0
 30
0.0
 70
   128
 71
     2
 72
     8
 73
     5
  0
VERTEX
  5
574
  8
0
 62
     9
 10
0.0
 20
0.0
 30
0.0
 70
   128
 71
     5
 72
     1
 73
     2
  0
VERTEX
  5
575
  8
0
 62
     9
 10
0.0
 20
0.0
 30
0.0
 70
   128
 71
    10
 72
     9
 73
     6
  0
VERTEX
  5
576
  8
0
 62
     9
 10
0.0
 20
0.0
 30
0.0
 70
   128
 71
    10
 72
    11
 73
     9
  0
VERTEX
  5
577
  8
0
 62
     9
 10
0.0
 20
0.0
 30
0.0
 70
   128
 71
     6
 72
     7
 73
    10
  0
VERTEX
  5
578
  8
0
 62
     9
 10
0.0
 20
0.0
 30
0.0
 70
   128
 71
     5
 72
     8
 73
     7
  0
VERTEX
  5
579
  8
0
 62
     9
 10
0.0
 20
0.0
 30
0.0
 70
   128
 71
     4
 72
    12
 73
     3
  0
SEQEND
  5
57A
  8
0
 62
     9
  0
ENDBLK
  5
57D
  8
0
  0
BLOCK
  8
0
  2
E3_NODE_22_
 70
     0
 10
0.0
 20
0.0
 30
0.0
  3
E3_NODE_22_
  1

  0
POLYLINE
  5
57F
  8
0
 62
     9
 66
     1
 10
0.0
 20
0.0
 30
0.0
 70
    64
 71
    12
 72
    10
  0
VERTEX
  5
580
  8
0
 10
136.8459930419922
 20
-13.97299957275391
 30
-73.65799713134766
 70
   192
  0
VERTEX
  5
581
  8
0
 10
135.7299957275391
 20
-13.00899982452393
 30
-73.77400207519531
 70
   192
  0
VERTEX
  5
582
  8
0
 10
135.9649963378906
 20
-12.65799999237061
 30
-75.05699920654297
 70
   192
  0
VERTEX
  5
583
  8
0
 10
136.1529998779297
 20
-11.89400005340576
 30
-76.15399932861328
 70
   192
  0
VERTEX
  5
584
  8
0
 10
137.3099975585938
 20
-12.58399963378906
 30
-76.64299774169922
 70
   192
  0
VERTEX
  5
585
  8
0
 10
137.1580047607422
 20
-13.3129997253418
 30
-75.58699798583984
 70
   192
  0
VERTEX
  5
586
  8
0
 10
137.4230041503906
 20
-11.22200012207031
 30
-77.64099884033203
 70
   192
  0
VERTEX
  5
587
  8
0
 10
136.2729949951172
 20
-10.79800033569336
 30
-76.9469985961914
 70
   192
  0
VERTEX
  5
588
  8
0
 10
136.2949981689453
 20
-10.22500038146973
 30
-77.13800048828125
 70
   192
  0
VERTEX
  5
589
  8
0
 10
137.4420013427734
 20
-9.883000373840332
 30
-78.09500122070312
 70
   192
  0
VERTEX
  5
58A
  8
0
 10
136.3139953613281
 20
-9.722000122070312
 30
-77.30500030517578
 70
   192
  0
VERTEX
  5
58B
  8
0
 10
137.1109924316406
 20
-13.53499984741211
 30
-75.26599884033203
 70
   192
  0
VERTEX
  5
58C
  8
0
 62
     9
 10
0.0
 20
0.0
 30
0.0
 70
   128
 71
     3
 72
     2
 73
     1
  0
VERTEX
  5
58D
  8
0
 62
     9
 10
0.0
 20
0.0
 30
0.0
 70
   128
 71
     6
 72
     5
 73
     4
  0
VERTEX
  5
58E
  8
0
 62
     9
 10
0.0
 20
0.0
 30
0.0
 70
   128
 71
     4
 72
     3
 73
     6
  0
VERTEX
  5
58F
  8
0
 62
     9
 10
0.0
 20
0.0
 30
0.0
 70
   128
 71
     4
 72
     5
 73
     7
  0
VERTEX
  5
590
  8
0
 62
     9
 10
0.0
 20
0.0
 30
0.0
 70
   128
 71
     9
 72
     8
 73
     7
  0
VERTEX
  5
591
  8
0
 62
     9
 10
0.0
 20
0.0
 30
0.0
 70
   128
 71
     7
 72
    10
 73
     9
  0
VERTEX
  5
592
  8
0
 62
     9
 10
0.0
 20
0.0
 30
0.0
 70
   128
 71
    10
 72
    11
 73
     9
  0
VERTEX
  5
593
  8
0
 62
     9
 10
0.0
 20
0.0
 30
0.0
 70
   128
 71
     7
 72
     8
 73
     4
  0
VERTEX
  5
594
  8
0
 62
     9
 10
0.0
 20
0.0
 30
0.0
 70
   128
 71
     3
 72
    12
 73
     6
  0
VERTEX
  5
595
  8
0
 62
     9
 10
0.0
 20
0.0
 30
0.0
 70
   128
 71
     1
 72
    12
 73
     3
  0
SEQEND
  5
596
  8
0
 62
     9
  0
ENDBLK
  5
599
  8
0
  0
BLOCK
  8
0
  2
E3_NODE_23_
 70
     0
 10
0.0
 20
0.0
 30
0.0
  3
E3_NODE_23_
  1

  0
POLYLINE
  5
59B
  8
0
 62
     9
 66
     1
 10
0.0
 20
0.0
 30
0.0
 70
    64
 71
   111
 72
   118
  0
VERTEX
  5
59C
  8
0
 10
99.70999908447266
 20
24.52199935913086
 30
6.689000129699707
 70
   192
  0
VERTEX
  5
59D
  8
0
 10
92.59700012207031
 20
25.7810001373291
 30
6.440999984741211
 70
   192
  0
VERTEX
  5
59E
  8
0
 10
93.11000061035156
 20
25.65299987792969
 30
7.710999965667725
 70
   192
  0
VERTEX
  5
59F
  8
0
 10
95.36299896240234
 20
24.84900093078613
 30
11.56999969482422
 70
   192
  0
VERTEX
  5
5A0
  8
0
 10
110.2740020751953
 20
22.43600082397461
 30
11.44900035858154
 70
   192
  0
VERTEX
  5
5A1
  8
0
 10
103.8000030517578
 20
23.7859992980957
 30
6.61899995803833
 70
   192
  0
VERTEX
  5
5A2
  8
0
 10
110.4290008544922
 20
22.59900093078613
 30
5.623000144958496
 70
   192
  0
VERTEX
  5
5A3
  8
0
 10
110.9869995117188
 20
22.49399948120117
 30
5.348999977111816
 70
   192
  0
VERTEX
  5
5A4
  8
0
 10
97.15599822998047
 20
24.20899963378906
 30
14.64099979400635
 70
   192
  0
VERTEX
  5
5A5
  8
0
 10
99.71600341796875
 20
22.23500061035156
 30
19.04599952697754
 70
   192
  0
VERTEX
  5
5A6
  8
0
 10
109.3359985351562
 20
20.98500061035156
 30
19.02599906921387
 70
   192
  0
VERTEX
  5
5A7
  8
0
 10
101.004997253418
 20
21.24099922180176
 30
21.26300048828125
 70
   192
  0
VERTEX
  5
5A8
  8
0
 10
103.2050018310547
 20
18.32500076293945
 30
25.05500030517578
 70
   192
  0
VERTEX
  5
5A9
  8
0
 10
108.0260009765625
 20
12.91800022125244
 30
29.8430004119873
 70
   192
  0
VERTEX
  5
5AA
  8
0
 10
108.5879974365234
 20
17.78000068664551
 30
25.09700012207031
 70
   192
  0
VERTEX
  5
5AB
  8
0
 10
104.9359970092773
 20
15.54100036621094
 30
28.04000091552734
 70
   192
  0
VERTEX
  5
5AC
  8
0
 10
103.9749984741211
 20
17.30400085449219
 30
26.38199996948242
 70
   192
  0
VERTEX
  5
5AD
  8
0
 10
107.7770004272461
 20
6.756999969482422
 30
32.70000076293945
 70
   192
  0
VERTEX
  5
5AE
  8
0
 10
107.2890014648438
 20
8.963000297546387
 30
32.10300064086914
 70
   192
  0
VERTEX
  5
5AF
  8
0
 10
105.9140014648438
 20
13.01000022888184
 30
29.72900009155273
 70
   192
  0
VERTEX
  5
5B0
  8
0
 10
106.8679962158203
 20
10.54300022125244
 30
31.37599945068359
 70
   192
  0
VERTEX
  5
5B1
  8
0
 10
108.0260009765625
 20
-12.91800022125244
 30
29.8430004119873
 70
   192
  0
VERTEX
  5
5B2
  8
0
 10
107.6829986572266
 20
-6.751999855041504
 30
32.78300094604492
 70
   192
  0
VERTEX
  5
5B3
  8
0
 10
106.4580001831055
 20
-11.84700012207031
 30
30.66799926757812
 70
   192
  0
VERTEX
  5
5B4
  8
0
 10
108.5879974365234
 20
-17.78000068664551
 30
25.09700012207031
 70
   192
  0
VERTEX
  5
5B5
  8
0
 10
104.2959976196289
 20
-16.75099945068359
 30
26.93499946594238
 70
   192
  0
VERTEX
  5
5B6
  8
0
 10
103.9219970703125
 20
-17.39100074768066
 30
26.29199981689453
 70
   192
  0
VERTEX
  5
5B7
  8
0
 10
105.9390029907227
 20
-13.02499961853027
 30
29.77099990844727
 70
   192
  0
VERTEX
  5
5B8
  8
0
 10
109.3359985351562
 20
-20.98500061035156
 30
19.02599906921387
 70
   192
  0
VERTEX
  5
5B9
  8
0
 10
103.2050018310547
 20
-18.32299995422363
 30
25.05599975585938
 70
   192
  0
VERTEX
  5
5BA
  8
0
 10
100.786003112793
 20
-21.46500015258789
 30
20.88699913024902
 70
   192
  0
VERTEX
  5
5BB
  8
0
 10
110.2740020751953
 20
-22.43600082397461
 30
11.44900035858154
 70
   192
  0
VERTEX
  5
5BC
  8
0
 10
99.74800109863281
 20
-22.37700080871582
 30
19.09900093078613
 70
   192
  0
VERTEX
  5
5BD
  8
0
 10
98.97599792480469
 20
-23.05299949645996
 30
17.77199935913086
 70
   192
  0
VERTEX
  5
5BE
  8
0
 10
95.37799835205078
 20
-24.90200042724609
 30
11.5930004119873
 70
   192
  0
VERTEX
  5
5BF
  8
0
 10
99.70999908447266
 20
-24.52199935913086
 30
6.689000129699707
 70
   192
  0
VERTEX
  5
5C0
  8
0
 10
103.8000030517578
 20
-23.7859992980957
 30
6.61899995803833
 70
   192
  0
VERTEX
  5
5C1
  8
0
 10
94.87000274658203
 20
-25.16300010681152
 30
10.72000026702881
 70
   192
  0
VERTEX
  5
5C2
  8
0
 10
93.11000061035156
 20
-25.65299987792969
 30
7.710999965667725
 70
   192
  0
VERTEX
  5
5C3
  8
0
 10
92.59700012207031
 20
-25.7810001373291
 30
6.440999984741211
 70
   192
  0
VERTEX
  5
5C4
  8
0
 10
110.4290008544922
 20
-22.59900093078613
 30
5.623000144958496
 70
   192
  0
VERTEX
  5
5C5
  8
0
 10
136.9940032958984
 20
-13.95499992370605
 30
-73.63899993896484
 70
   192
  0
VERTEX
  5
5C6
  8
0
 10
132.77099609375
 20
-16.61400032043457
 30
-40.95899963378906
 70
   192
  0
VERTEX
  5
5C7
  8
0
 10
134.3209991455078
 20
-15.27000045776367
 30
-60.11600112915039
 70
   192
  0
VERTEX
  5
5C8
  8
0
 10
136.8459930419922
 20
-13.97299957275391
 30
-73.65799713134766
 70
   192
  0
VERTEX
  5
5C9
  8
0
 10
129.1549987792969
 20
-17.60000038146973
 30
-33.02700042724609
 70
   192
  0
VERTEX
  5
5CA
  8
0
 10
130.3619995117188
 20
-17.66799926757812
 30
-26.12400054931641
 70
   192
  0
VERTEX
  5
5CB
  8
0
 10
127.6620025634766
 20
-18.15299987792969
 30
-26.72500038146973
 70
   192
  0
VERTEX
  5
5CC
  8
0
 10
127.4850006103516
 20
-18.92700004577637
 30
-8.407999992370605
 70
   192
  0
VERTEX
  5
5CD
  8
0
 10
125.9779968261719
 20
-18.77700042724609
 30
-19.61100006103516
 70
   192
  0
VERTEX
  5
5CE
  8
0
 10
122.3899993896484
 20
-19.9330005645752
 30
-8.223999977111816
 70
   192
  0
VERTEX
  5
5CF
  8
0
 10
126.2539978027344
 20
-19.29100036621094
 30
-1.059000015258789
 70
   192
  0
VERTEX
  5
5D0
  8
0
 10
119.4440002441406
 20
-20.7450008392334
 30
-1.827999949455261
 70
   192
  0
VERTEX
  5
5D1
  8
0
 10
119.0380020141602
 20
-20.8439998626709
 30
-1.190000057220459
 70
   192
  0
VERTEX
  5
5D2
  8
0
 10
124.7620010375977
 20
-19.73299980163574
 30
7.849999904632568
 70
   192
  0
VERTEX
  5
5D3
  8
0
 10
118.4609985351562
 20
-20.98500061035156
 30
-0.2840000092983246
 70
   192
  0
VERTEX
  5
5D4
  8
0
 10
114.984001159668
 20
-21.74200057983398
 30
3.391999959945679
 70
   192
  0
VERTEX
  5
5D5
  8
0
 10
124.3150024414062
 20
-19.53400039672852
 30
10.95699977874756
 70
   192
  0
VERTEX
  5
5D6
  8
0
 10
110.9869995117188
 20
-22.49399948120117
 30
5.348999977111816
 70
   192
  0
VERTEX
  5
5D7
  8
0
 10
123.661003112793
 20
-19.24300003051758
 30
15.49899959564209
 70
   192
  0
VERTEX
  5
5D8
  8
0
 10
123.4459991455078
 20
-18.89699935913086
 30
17.31100082397461
 70
   192
  0
VERTEX
  5
5D9
  8
0
 10
122.9449996948242
 20
-16.92399978637695
 30
22.85199928283691
 70
   192
  0
VERTEX
  5
5DA
  8
0
 10
122.8929977416992
 20
-16.45199966430664
 30
23.71199989318848
 70
   192
  0
VERTEX
  5
5DB
  8
0
 10
123.3300018310547
 20
-18.4419994354248
 30
18.58799934387207
 70
   192
  0
VERTEX
  5
5DC
  8
0
 10
122.7610015869141
 20
-12.99199962615967
 30
28.0049991607666
 70
   192
  0
VERTEX
  5
5DD
  8
0
 10
122.7630004882812
 20
-11.79100036621094
 30
29.01099967956543
 70
   192
  0
VERTEX
  5
5DE
  8
0
 10
122.8649978637695
 20
-15.7189998626709
 30
24.62199974060059
 70
   192
  0
VERTEX
  5
5DF
  8
0
 10
122.7679977416992
 20
-11.48700046539307
 30
29.17600059509277
 70
   192
  0
VERTEX
  5
5E0
  8
0
 10
122.8369979858398
 20
-6.473000049591064
 30
31.90200042724609
 70
   192
  0
VERTEX
  5
5E1
  8
0
 10
122.8399963378906
 20
-6.03000020980835
 30
31.99099922180176
 70
   192
  0
VERTEX
  5
5E2
  8
0
 10
107.9010009765625
 20
-5.842999935150146
 30
33.1609992980957
 70
   192
  0
VERTEX
  5
5E3
  8
0
 10
107.6890029907227
 20
-6.72599983215332
 30
32.79399871826172
 70
   192
  0
VERTEX
  5
5E4
  8
0
 10
108.068000793457
 20
-4.618000030517578
 30
33.44800186157227
 70
   192
  0
VERTEX
  5
5E5
  8
0
 10
122.8820037841797
 20
-0.9549999833106995
 30
33.01599884033203
 70
   192
  0
VERTEX
  5
5E6
  8
0
 10
108.2779998779297
 20
0.0080000003799796
 30
33.8120002746582
 70
   192
  0
VERTEX
  5
5E7
  8
0
 10
122.8840026855469
 20
0.0
 30
33.04000091552734
 70
   192
  0
VERTEX
  5
5E8
  8
0
 10
122.8840026855469
 20
0.0240000002086163
 30
33.04100036621094
 70
   192
  0
VERTEX
  5
5E9
  8
0
 10
122.8479995727539
 20
5.581999778747559
 30
32.19800186157227
 70
   192
  0
VERTEX
  5
5EA
  8
0
 10
108.1910018920898
 20
3.427000045776367
 30
33.6619987487793
 70
   192
  0
VERTEX
  5
5EB
  8
0
 10
108.3270034790039
 20
1.08899998664856
 30
33.89599990844727
 70
   192
  0
VERTEX
  5
5EC
  8
0
 10
122.8420028686523
 20
6.040999889373779
 30
32.04700088500977
 70
   192
  0
VERTEX
  5
5ED
  8
0
 10
107.6890029907227
 20
6.511000156402588
 30
32.79299926757812
 70
   192
  0
VERTEX
  5
5EE
  8
0
 10
122.8379974365234
 20
6.373000144958496
 30
31.9379997253418
 70
   192
  0
VERTEX
  5
5EF
  8
0
 10
122.7669982910156
 20
11.4060001373291
 30
29.29899978637695
 70
   192
  0
VERTEX
  5
5F0
  8
0
 10
122.7620010375977
 20
11.99499988555908
 30
28.85199928283691
 70
   192
  0
VERTEX
  5
5F1
  8
0
 10
122.8369979858398
 20
15.75
 30
24.82600021362305
 70
   192
  0
VERTEX
  5
5F2
  8
0
 10
122.8840026855469
 20
16.35600090026855
 30
23.875
 70
   192
  0
VERTEX
  5
5F3
  8
0
 10
122.8430023193359
 20
15.82600021362305
 30
24.70700073242188
 70
   192
  0
VERTEX
  5
5F4
  8
0
 10
123.3300018310547
 20
18.63299942016602
 30
18.3799991607666
 70
   192
  0
VERTEX
  5
5F5
  8
0
 10
124.2839965820312
 20
19.67200088500977
 30
10.9680004119873
 70
   192
  0
VERTEX
  5
5F6
  8
0
 10
114.984001159668
 20
21.74200057983398
 30
3.391999959945679
 70
   192
  0
VERTEX
  5
5F7
  8
0
 10
124.2949981689453
 20
19.68400001525879
 30
10.88399982452393
 70
   192
  0
VERTEX
  5
5F8
  8
0
 10
125.1689987182617
 20
19.6870002746582
 30
5.329999923706055
 70
   192
  0
VERTEX
  5
5F9
  8
0
 10
126.2460021972656
 20
19.33200073242188
 30
-1.057000041007996
 70
   192
  0
VERTEX
  5
5FA
  8
0
 10
119.0380020141602
 20
20.8439998626709
 30
-1.190000057220459
 70
   192
  0
VERTEX
  5
5FB
  8
0
 10
118.4609985351562
 20
20.98500061035156
 30
-0.2840000092983246
 70
   192
  0
VERTEX
  5
5FC
  8
0
 10
127.536003112793
 20
18.9060001373291
 30
-8.71399974822998
 70
   192
  0
VERTEX
  5
5FD
  8
0
 10
122.3899993896484
 20
19.9330005645752
 30
-8.223999977111816
 70
   192
  0
VERTEX
  5
5FE
  8
0
 10
130.2969970703125
 20
17.61899948120117
 30
-26.13800048828125
 70
   192
  0
VERTEX
  5
5FF
  8
0
 10
127.6620025634766
 20
18.15299987792969
 30
-26.72500038146973
 70
   192
  0
VERTEX
  5
600
  8
0
 10
125.9779968261719
 20
18.77700042724609
 30
-19.61100006103516
 70
   192
  0
VERTEX
  5
601
  8
0
 10
119.4440002441406
 20
20.7450008392334
 30
-1.827999949455261
 70
   192
  0
VERTEX
  5
602
  8
0
 10
135.2610015869141
 20
15.30500030517578
 30
-57.47000122070312
 70
   192
  0
VERTEX
  5
603
  8
0
 10
134.3209991455078
 20
15.27000045776367
 30
-60.11600112915039
 70
   192
  0
VERTEX
  5
604
  8
0
 10
129.1549987792969
 20
17.60000038146973
 30
-33.02700042724609
 70
   192
  0
VERTEX
  5
605
  8
0
 10
136.9940032958984
 20
13.95499992370605
 30
-73.63899993896484
 70
   192
  0
VERTEX
  5
606
  8
0
 10
136.8459930419922
 20
13.97299957275391
 30
-73.65799713134766
 70
   192
  0
VERTEX
  5
607
  8
0
 10
136.3119964599609
 20
14.67899990081787
 30
-64.74099731445312
 70
   192
  0
VERTEX
  5
608
  8
0
 10
137.5429992675781
 20
13.88599967956543
 30
-73.56800079345703
 70
   192
  0
VERTEX
  5
609
  8
0
 10
137.5429992675781
 20
-13.88599967956543
 30
-73.56800079345703
 70
   192
  0
VERTEX
  5
60A
  8
0
 10
107.6500015258789
 20
6.751999855041504
 30
32.72600173950195
 70
   192
  0
VERTEX
  5
60B
  8
0
 62
     9
 10
0.0
 20
0.0
 30
0.0
 70
   128
 71
     3
 72
     2
 73
     1
  0
VERTEX
  5
60C
  8
0
 62
     9
 10
0.0
 20
0.0
 30
0.0
 70
   128
 71
     6
 72
     5
 73
     4
  0
VERTEX
  5
60D
  8
0
 62
     9
 10
0.0
 20
0.0
 30
0.0
 70
   128
 71
     4
 72
     1
 73
     6
  0
VERTEX
  5
60E
  8
0
 62
     9
 10
0.0
 20
0.0
 30
0.0
 70
   128
 71
     6
 72
     7
 73
     5
  0
VERTEX
  5
60F
  8
0
 62
     9
 10
0.0
 20
0.0
 30
0.0
 70
   128
 71
     7
 72
     8
 73
     5
  0
VERTEX
  5
610
  8
0
 62
     9
 10
0.0
 20
0.0
 30
0.0
 70
   128
 71
    10
 72
     9
 73
     5
  0
VERTEX
  5
611
  8
0
 62
     9
 10
0.0
 20
0.0
 30
0.0
 70
   128
 71
     9
 72
     4
 73
     5
  0
VERTEX
  5
612
  8
0
 62
     9
 10
0.0
 20
0.0
 30
0.0
 70
   128
 71
    13
 72
    12
 73
    11
  0
VERTEX
  5
613
  8
0
 62
     9
 10
0.0
 20
0.0
 30
0.0
 70
   128
 71
    12
 72
    10
 73
    11
  0
VERTEX
  5
614
  8
0
 62
     9
 10
0.0
 20
0.0
 30
0.0
 70
   128
 71
    16
 72
    15
 73
    14
  0
VERTEX
  5
615
  8
0
 62
     9
 10
0.0
 20
0.0
 30
0.0
 70
   128
 71
    17
 72
    13
 73
    15
  0
VERTEX
  5
616
  8
0
 62
     9
 10
0.0
 20
0.0
 30
0.0
 70
   128
 71
    15
 72
    16
 73
    17
  0
VERTEX
  5
617
  8
0
 62
     9
 10
0.0
 20
0.0
 30
0.0
 70
   128
 71
    19
 72
    14
 73
    18
  0
VERTEX
  5
618
  8
0
 62
     9
 10
0.0
 20
0.0
 30
0.0
 70
   128
 71
    21
 72
    20
 73
    14
  0
VERTEX
  5
619
  8
0
 62
     9
 10
0.0
 20
0.0
 30
0.0
 70
   128
 71
    14
 72
    19
 73
    21
  0
VERTEX
  5
61A
  8
0
 62
     9
 10
0.0
 20
0.0
 30
0.0
 70
   128
 71
    24
 72
    23
 73
    22
  0
VERTEX
  5
61B
  8
0
 62
     9
 10
0.0
 20
0.0
 30
0.0
 70
   128
 71
    27
 72
    26
 73
    25
  0
VERTEX
  5
61C
  8
0
 62
     9
 10
0.0
 20
0.0
 30
0.0
 70
   128
 71
    28
 72
    22
 73
    25
  0
VERTEX
  5
61D
  8
0
 62
     9
 10
0.0
 20
0.0
 30
0.0
 70
   128
 71
    25
 72
    26
 73
    28
  0
VERTEX
  5
61E
  8
0
 62
     9
 10
0.0
 20
0.0
 30
0.0
 70
   128
 71
    30
 72
    25
 73
    29
  0
VERTEX
  5
61F
  8
0
 62
     9
 10
0.0
 20
0.0
 30
0.0
 70
   128
 71
    29
 72
    31
 73
    30
  0
VERTEX
  5
620
  8
0
 62
     9
 10
0.0
 20
0.0
 30
0.0
 70
   128
 71
    33
 72
    29
 73
    32
  0
VERTEX
  5
621
  8
0
 62
     9
 10
0.0
 20
0.0
 30
0.0
 70
   128
 71
    32
 72
    34
 73
    33
  0
VERTEX
  5
622
  8
0
 62
     9
 10
0.0
 20
0.0
 30
0.0
 70
   128
 71
    37
 72
    36
 73
    35
  0
VERTEX
  5
623
  8
0
 62
     9
 10
0.0
 20
0.0
 30
0.0
 70
   128
 71
    39
 72
    38
 73
    36
  0
VERTEX
  5
624
  8
0
 62
     9
 10
0.0
 20
0.0
 30
0.0
 70
   128
 71
    38
 72
    35
 73
    36
  0
VERTEX
  5
625
  8
0
 62
     9
 10
0.0
 20
0.0
 30
0.0
 70
   128
 71
    36
 72
    40
 73
    39
  0
VERTEX
  5
626
  8
0
 62
     9
 10
0.0
 20
0.0
 30
0.0
 70
   128
 71
    35
 72
    32
 73
    37
  0
VERTEX
  5
627
  8
0
 62
     9
 10
0.0
 20
0.0
 30
0.0
 70
   128
 71
    32
 72
    41
 73
    37
  0
VERTEX
  5
628
  8
0
 62
     9
 10
0.0
 20
0.0
 30
0.0
 70
   128
 71
    44
 72
    43
 73
    42
  0
VERTEX
  5
629
  8
0
 62
     9
 10
0.0
 20
0.0
 30
0.0
 70
   128
 71
    42
 72
    45
 73
    44
  0
VERTEX
  5
62A
  8
0
 62
     9
 10
0.0
 20
0.0
 30
0.0
 70
   128
 71
    43
 72
    44
 73
    46
  0
VERTEX
  5
62B
  8
0
 62
     9
 10
0.0
 20
0.0
 30
0.0
 70
   128
 71
    46
 72
    47
 73
    43
  0
VERTEX
  5
62C
  8
0
 62
     9
 10
0.0
 20
0.0
 30
0.0
 70
   128
 71
    46
 72
    48
 73
    47
  0
VERTEX
  5
62D
  8
0
 62
     9
 10
0.0
 20
0.0
 30
0.0
 70
   128
 71
    50
 72
    49
 73
    47
  0
VERTEX
  5
62E
  8
0
 62
     9
 10
0.0
 20
0.0
 30
0.0
 70
   128
 71
    50
 72
    51
 73
    49
  0
VERTEX
  5
62F
  8
0
 62
     9
 10
0.0
 20
0.0
 30
0.0
 70
   128
 71
    51
 72
    53
 73
    52
  0
VERTEX
  5
630
  8
0
 62
     9
 10
0.0
 20
0.0
 30
0.0
 70
   128
 71
    52
 72
    49
 73
    51
  0
VERTEX
  5
631
  8
0
 62
     9
 10
0.0
 20
0.0
 30
0.0
 70
   128
 71
    53
 72
    54
 73
    52
  0
VERTEX
  5
632
  8
0
 62
     9
 10
0.0
 20
0.0
 30
0.0
 70
   128
 71
    54
 72
    56
 73
    55
  0
VERTEX
  5
633
  8
0
 62
     9
 10
0.0
 20
0.0
 30
0.0
 70
   128
 71
    55
 72
    56
 73
    57
  0
VERTEX
  5
634
  8
0
 62
     9
 10
0.0
 20
0.0
 30
0.0
 70
   128
 71
    57
 72
    58
 73
    55
  0
VERTEX
  5
635
  8
0
 62
     9
 10
0.0
 20
0.0
 30
0.0
 70
   128
 71
    59
 72
    32
 73
    58
  0
VERTEX
  5
636
  8
0
 62
     9
 10
0.0
 20
0.0
 30
0.0
 70
   128
 71
    58
 72
    57
 73
    59
  0
VERTEX
  5
637
  8
0
 62
     9
 10
0.0
 20
0.0
 30
0.0
 70
   128
 71
    60
 72
    32
 73
    29
  0
VERTEX
  5
638
  8
0
 62
     9
 10
0.0
 20
0.0
 30
0.0
 70
   128
 71
    60
 72
    58
 73
    32
  0
VERTEX
  5
639
  8
0
 62
     9
 10
0.0
 20
0.0
 30
0.0
 70
   128
 71
    29
 72
    61
 73
    60
  0
VERTEX
  5
63A
  8
0
 62
     9
 10
0.0
 20
0.0
 30
0.0
 70
   128
 71
    63
 72
    62
 73
    25
  0
VERTEX
  5
63B
  8
0
 62
     9
 10
0.0
 20
0.0
 30
0.0
 70
   128
 71
    62
 72
    64
 73
    29
  0
VERTEX
  5
63C
  8
0
 62
     9
 10
0.0
 20
0.0
 30
0.0
 70
   128
 71
    29
 72
    25
 73
    62
  0
VERTEX
  5
63D
  8
0
 62
     9
 10
0.0
 20
0.0
 30
0.0
 70
   128
 71
    66
 72
    65
 73
    22
  0
VERTEX
  5
63E
  8
0
 62
     9
 10
0.0
 20
0.0
 30
0.0
 70
   128
 71
    65
 72
    67
 73
    25
  0
VERTEX
  5
63F
  8
0
 62
     9
 10
0.0
 20
0.0
 30
0.0
 70
   128
 71
    25
 72
    22
 73
    65
  0
VERTEX
  5
640
  8
0
 62
     9
 10
0.0
 20
0.0
 30
0.0
 70
   128
 71
    68
 72
    22
 73
    23
  0
VERTEX
  5
641
  8
0
 62
     9
 10
0.0
 20
0.0
 30
0.0
 70
   128
 71
    23
 72
    69
 73
    68
  0
VERTEX
  5
642
  8
0
 62
     9
 10
0.0
 20
0.0
 30
0.0
 70
   128
 71
    72
 72
    71
 73
    70
  0
VERTEX
  5
643
  8
0
 62
     9
 10
0.0
 20
0.0
 30
0.0
 70
   128
 71
    74
 72
    70
 73
    73
  0
VERTEX
  5
644
  8
0
 62
     9
 10
0.0
 20
0.0
 30
0.0
 70
   128
 71
    73
 72
    75
 73
    74
  0
VERTEX
  5
645
  8
0
 62
     9
 10
0.0
 20
0.0
 30
0.0
 70
   128
 71
    75
 72
    76
 73
    74
  0
VERTEX
  5
646
  8
0
 62
     9
 10
0.0
 20
0.0
 30
0.0
 70
   128
 71
    70
 72
    71
 73
    73
  0
VERTEX
  5
647
  8
0
 62
     9
 10
0.0
 20
0.0
 30
0.0
 70
   128
 71
    77
 72
    76
 73
    75
  0
VERTEX
  5
648
  8
0
 62
     9
 10
0.0
 20
0.0
 30
0.0
 70
   128
 71
    80
 72
    79
 73
    78
  0
VERTEX
  5
649
  8
0
 62
     9
 10
0.0
 20
0.0
 30
0.0
 70
   128
 71
    18
 72
    81
 73
    78
  0
VERTEX
  5
64A
  8
0
 62
     9
 10
0.0
 20
0.0
 30
0.0
 70
   128
 71
    78
 72
    82
 73
    18
  0
VERTEX
  5
64B
  8
0
 62
     9
 10
0.0
 20
0.0
 30
0.0
 70
   128
 71
    78
 72
    79
 73
    82
  0
VERTEX
  5
64C
  8
0
 62
     9
 10
0.0
 20
0.0
 30
0.0
 70
   128
 71
    78
 72
    77
 73
    80
  0
VERTEX
  5
64D
  8
0
 62
     9
 10
0.0
 20
0.0
 30
0.0
 70
   128
 71
    84
 72
    83
 73
    18
  0
VERTEX
  5
64E
  8
0
 62
     9
 10
0.0
 20
0.0
 30
0.0
 70
   128
 71
    83
 72
    81
 73
    18
  0
VERTEX
  5
64F
  8
0
 62
     9
 10
0.0
 20
0.0
 30
0.0
 70
   128
 71
    86
 72
    85
 73
    14
  0
VERTEX
  5
650
  8
0
 62
     9
 10
0.0
 20
0.0
 30
0.0
 70
   128
 71
    85
 72
    84
 73
    14
  0
VERTEX
  5
651
  8
0
 62
     9
 10
0.0
 20
0.0
 30
0.0
 70
   128
 71
    14
 72
    15
 73
    86
  0
VERTEX
  5
652
  8
0
 62
     9
 10
0.0
 20
0.0
 30
0.0
 70
   128
 71
    87
 72
    15
 73
    11
  0
VERTEX
  5
653
  8
0
 62
     9
 10
0.0
 20
0.0
 30
0.0
 70
   128
 71
    87
 72
    88
 73
    15
  0
VERTEX
  5
654
  8
0
 62
     9
 10
0.0
 20
0.0
 30
0.0
 70
   128
 71
    89
 72
    11
 73
     5
  0
VERTEX
  5
655
  8
0
 62
     9
 10
0.0
 20
0.0
 30
0.0
 70
   128
 71
     8
 72
    91
 73
    90
  0
VERTEX
  5
656
  8
0
 62
     9
 10
0.0
 20
0.0
 30
0.0
 70
   128
 71
    93
 72
    92
 73
    91
  0
VERTEX
  5
657
  8
0
 62
     9
 10
0.0
 20
0.0
 30
0.0
 70
   128
 71
    92
 72
    90
 73
    91
  0
VERTEX
  5
658
  8
0
 62
     9
 10
0.0
 20
0.0
 30
0.0
 70
   128
 71
    95
 72
    94
 73
    93
  0
VERTEX
  5
659
  8
0
 62
     9
 10
0.0
 20
0.0
 30
0.0
 70
   128
 71
    93
 72
    96
 73
    95
  0
VERTEX
  5
65A
  8
0
 62
     9
 10
0.0
 20
0.0
 30
0.0
 70
   128
 71
    91
 72
    96
 73
    93
  0
VERTEX
  5
65B
  8
0
 62
     9
 10
0.0
 20
0.0
 30
0.0
 70
   128
 71
    98
 72
    97
 73
    94
  0
VERTEX
  5
65C
  8
0
 62
     9
 10
0.0
 20
0.0
 30
0.0
 70
   128
 71
   101
 72
   100
 73
    99
  0
VERTEX
  5
65D
  8
0
 62
     9
 10
0.0
 20
0.0
 30
0.0
 70
   128
 71
    99
 72
    97
 73
   101
  0
VERTEX
  5
65E
  8
0
 62
     9
 10
0.0
 20
0.0
 30
0.0
 70
   128
 71
    97
 72
    98
 73
   101
  0
VERTEX
  5
65F
  8
0
 62
     9
 10
0.0
 20
0.0
 30
0.0
 70
   128
 71
    94
 72
   102
 73
    98
  0
VERTEX
  5
660
  8
0
 62
     9
 10
0.0
 20
0.0
 30
0.0
 70
   128
 71
   105
 72
   104
 73
   103
  0
VERTEX
  5
661
  8
0
 62
     9
 10
0.0
 20
0.0
 30
0.0
 70
   128
 71
   104
 72
   107
 73
   106
  0
VERTEX
  5
662
  8
0
 62
     9
 10
0.0
 20
0.0
 30
0.0
 70
   128
 71
   108
 72
   103
 73
   106
  0
VERTEX
  5
663
  8
0
 62
     9
 10
0.0
 20
0.0
 30
0.0
 70
   128
 71
   106
 72
   109
 73
   108
  0
VERTEX
  5
664
  8
0
 62
     9
 10
0.0
 20
0.0
 30
0.0
 70
   128
 71
   106
 72
   103
 73
   104
  0
VERTEX
  5
665
  8
0
 62
     9
 10
0.0
 20
0.0
 30
0.0
 70
   128
 71
   103
 72
    99
 73
   105
  0
VERTEX
  5
666
  8
0
 62
     9
 10
0.0
 20
0.0
 30
0.0
 70
   128
 71
    99
 72
   100
 73
   105
  0
VERTEX
  5
667
  8
0
 62
     9
 10
0.0
 20
0.0
 30
0.0
 70
   128
 71
    94
 72
    95
 73
   102
  0
VERTEX
  5
668
  8
0
 62
     9
 10
0.0
 20
0.0
 30
0.0
 70
   128
 71
    90
 72
     5
 73
     8
  0
VERTEX
  5
669
  8
0
 62
     9
 10
0.0
 20
0.0
 30
0.0
 70
   128
 71
     5
 72
    90
 73
    89
  0
VERTEX
  5
66A
  8
0
 62
     9
 10
0.0
 20
0.0
 30
0.0
 70
   128
 71
    11
 72
    89
 73
    87
  0
VERTEX
  5
66B
  8
0
 62
     9
 10
0.0
 20
0.0
 30
0.0
 70
   128
 71
    15
 72
    88
 73
    86
  0
VERTEX
  5
66C
  8
0
 62
     9
 10
0.0
 20
0.0
 30
0.0
 70
   128
 71
    18
 72
    14
 73
    84
  0
VERTEX
  5
66D
  8
0
 62
     9
 10
0.0
 20
0.0
 30
0.0
 70
   128
 71
    75
 72
    80
 73
    77
  0
VERTEX
  5
66E
  8
0
 62
     9
 10
0.0
 20
0.0
 30
0.0
 70
   128
 71
    70
 72
    23
 73
    72
  0
VERTEX
  5
66F
  8
0
 62
     9
 10
0.0
 20
0.0
 30
0.0
 70
   128
 71
    23
 72
    70
 73
    69
  0
VERTEX
  5
670
  8
0
 62
     9
 10
0.0
 20
0.0
 30
0.0
 70
   128
 71
    22
 72
    68
 73
    66
  0
VERTEX
  5
671
  8
0
 62
     9
 10
0.0
 20
0.0
 30
0.0
 70
   128
 71
    25
 72
    67
 73
    63
  0
VERTEX
  5
672
  8
0
 62
     9
 10
0.0
 20
0.0
 30
0.0
 70
   128
 71
    29
 72
    64
 73
    61
  0
VERTEX
  5
673
  8
0
 62
     9
 10
0.0
 20
0.0
 30
0.0
 70
   128
 71
    55
 72
    52
 73
    54
  0
VERTEX
  5
674
  8
0
 62
     9
 10
0.0
 20
0.0
 30
0.0
 70
   128
 71
    47
 72
    48
 73
    50
  0
VERTEX
  5
675
  8
0
 62
     9
 10
0.0
 20
0.0
 30
0.0
 70
   128
 71
    43
 72
   110
 73
    42
  0
VERTEX
  5
676
  8
0
 62
     9
 10
0.0
 20
0.0
 30
0.0
 70
   128
 71
    32
 72
    59
 73
    41
  0
VERTEX
  5
677
  8
0
 62
     9
 10
0.0
 20
0.0
 30
0.0
 70
   128
 71
    32
 72
    35
 73
    34
  0
VERTEX
  5
678
  8
0
 62
     9
 10
0.0
 20
0.0
 30
0.0
 70
   128
 71
    29
 72
    33
 73
    31
  0
VERTEX
  5
679
  8
0
 62
     9
 10
0.0
 20
0.0
 30
0.0
 70
   128
 71
    25
 72
    30
 73
    27
  0
VERTEX
  5
67A
  8
0
 62
     9
 10
0.0
 20
0.0
 30
0.0
 70
   128
 71
    22
 72
    28
 73
    24
  0
VERTEX
  5
67B
  8
0
 62
     9
 10
0.0
 20
0.0
 30
0.0
 70
   128
 71
   111
 72
    18
 73
    82
  0
VERTEX
  5
67C
  8
0
 62
     9
 10
0.0
 20
0.0
 30
0.0
 70
   128
 71
    18
 72
   111
 73
    19
  0
VERTEX
  5
67D
  8
0
 62
     9
 10
0.0
 20
0.0
 30
0.0
 70
   128
 71
    14
 72
    20
 73
    16
  0
VERTEX
  5
67E
  8
0
 62
     9
 10
0.0
 20
0.0
 30
0.0
 70
   128
 71
    11
 72
    15
 73
    13
  0
VERTEX
  5
67F
  8
0
 62
     9
 10
0.0
 20
0.0
 30
0.0
 70
   128
 71
     5
 72
    11
 73
    10
  0
VERTEX
  5
680
  8
0
 62
     9
 10
0.0
 20
0.0
 30
0.0
 70
   128
 71
     1
 72
     4
 73
     3
  0
SEQEND
  5
681
  8
0
 62
     9
  0
ENDBLK
  5
684
  8
0
  0
BLOCK
  8
0
  2
E3_NODE_24_
 70
     0
 10
0.0
 20
0.0
 30
0.0
  3
E3_NODE_24_
  1

  0
POLYLINE
  5
686
  8
0
 62
     9
 66
     1
 10
0.0
 20
0.0
 30
0.0
 70
    64
 71
    12
 72
    10
  0
VERTEX
  5
687
  8
0
 10
136.9940032958984
 20
13.95499992370605
 30
-73.63899993896484
 70
   192
  0
VERTEX
  5
688
  8
0
 10
137.1540069580078
 20
13.30099964141846
 30
-75.5719985961914
 70
   192
  0
VERTEX
  5
689
  8
0
 10
137.0679931640625
 20
13.65299987792969
 30
-74.98999786376953
 70
   192
  0
VERTEX
  5
68A
  8
0
 10
137.4420013427734
 20
9.883000373840332
 30
-78.09500122070312
 70
   192
  0
VERTEX
  5
68B
  8
0
 10
137.4100036621094
 20
11.47399997711182
 30
-77.50499725341797
 70
   192
  0
VERTEX
  5
68C
  8
0
 10
138.0290069580078
 20
11.19499969482422
 30
-77.54000091552734
 70
   192
  0
VERTEX
  5
68D
  8
0
 10
137.2819976806641
 20
12.77999973297119
 30
-76.43000030517578
 70
   192
  0
VERTEX
  5
68E
  8
0
 10
137.9179992675781
 20
12.53400039672852
 30
-76.53900146484375
 70
   192
  0
VERTEX
  5
68F
  8
0
 10
137.7489929199219
 20
13.46300029754639
 30
-75.16799926757812
 70
   192
  0
VERTEX
  5
690
  8
0
 10
137.5429992675781
 20
13.88599967956543
 30
-73.56800079345703
 70
   192
  0
VERTEX
  5
691
  8
0
 10
138.0679931640625
 20
9.79800033569336
 30
-78.01799774169922
 70
   192
  0
VERTEX
  5
692
  8
0
 10
136.8459930419922
 20
13.97299957275391
 30
-73.65799713134766
 70
   192
  0
VERTEX
  5
693
  8
0
 62
     9
 10
0.0
 20
0.0
 30
0.0
 70
   128
 71
     3
 72
     2
 73
     1
  0
VERTEX
  5
694
  8
0
 62
     9
 10
0.0
 20
0.0
 30
0.0
 70
   128
 71
     6
 72
     5
 73
     4
  0
VERTEX
  5
695
  8
0
 62
     9
 10
0.0
 20
0.0
 30
0.0
 70
   128
 71
     8
 72
     7
 73
     5
  0
VERTEX
  5
696
  8
0
 62
     9
 10
0.0
 20
0.0
 30
0.0
 70
   128
 71
     2
 72
     7
 73
     8
  0
VERTEX
  5
697
  8
0
 62
     9
 10
0.0
 20
0.0
 30
0.0
 70
   128
 71
     8
 72
     9
 73
     2
  0
VERTEX
  5
698
  8
0
 62
     9
 10
0.0
 20
0.0
 30
0.0
 70
   128
 71
     5
 72
     6
 73
     8
  0
VERTEX
  5
699
  8
0
 62
     9
 10
0.0
 20
0.0
 30
0.0
 70
   128
 71
     9
 72
    10
 73
     1
  0
VERTEX
  5
69A
  8
0
 62
     9
 10
0.0
 20
0.0
 30
0.0
 70
   128
 71
     1
 72
     2
 73
     9
  0
VERTEX
  5
69B
  8
0
 62
     9
 10
0.0
 20
0.0
 30
0.0
 70
   128
 71
     4
 72
    11
 73
     6
  0
VERTEX
  5
69C
  8
0
 62
     9
 10
0.0
 20
0.0
 30
0.0
 70
   128
 71
     1
 72
    12
 73
     3
  0
SEQEND
  5
69D
  8
0
 62
     9
  0
ENDBLK
  5
6A0
  8
0
  0
BLOCK
  8
0
  2
E3_NODE_25_
 70
     0
 10
0.0
 20
0.0
 30
0.0
  3
E3_NODE_25_
  1

  0
POLYLINE
  5
6A2
  8
0
 62
     9
 66
     1
 10
0.0
 20
0.0
 30
0.0
 70
    64
 71
    12
 72
    10
  0
VERTEX
  5
6A3
  8
0
 10
136.9940032958984
 20
-13.95499992370605
 30
-73.63899993896484
 70
   192
  0
VERTEX
  5
6A4
  8
0
 10
136.8459930419922
 20
-13.97299957275391
 30
-73.65799713134766
 70
   192
  0
VERTEX
  5
6A5
  8
0
 10
137.1109924316406
 20
-13.53499984741211
 30
-75.26599884033203
 70
   192
  0
VERTEX
  5
6A6
  8
0
 10
137.1580047607422
 20
-13.3129997253418
 30
-75.58699798583984
 70
   192
  0
VERTEX
  5
6A7
  8
0
 10
137.7160034179688
 20
-13.57299995422363
 30
-74.90799713134766
 70
   192
  0
VERTEX
  5
6A8
  8
0
 10
137.89599609375
 20
-12.70300006866455
 30
-76.35299682617188
 70
   192
  0
VERTEX
  5
6A9
  8
0
 10
137.3099975585938
 20
-12.58399963378906
 30
-76.64299774169922
 70
   192
  0
VERTEX
  5
6AA
  8
0
 10
137.4230041503906
 20
-11.22200012207031
 30
-77.64099884033203
 70
   192
  0
VERTEX
  5
6AB
  8
0
 10
138.0180053710938
 20
-11.39299964904785
 30
-77.43199920654297
 70
   192
  0
VERTEX
  5
6AC
  8
0
 10
138.0679931640625
 20
-9.79800033569336
 30
-78.01799774169922
 70
   192
  0
VERTEX
  5
6AD
  8
0
 10
137.4420013427734
 20
-9.883000373840332
 30
-78.09500122070312
 70
   192
  0
VERTEX
  5
6AE
  8
0
 10
137.5429992675781
 20
-13.88599967956543
 30
-73.56800079345703
 70
   192
  0
VERTEX
  5
6AF
  8
0
 62
     9
 10
0.0
 20
0.0
 30
0.0
 70
   128
 71
     3
 72
     2
 73
     1
  0
VERTEX
  5
6B0
  8
0
 62
     9
 10
0.0
 20
0.0
 30
0.0
 70
   128
 71
     5
 72
     4
 73
     1
  0
VERTEX
  5
6B1
  8
0
 62
     9
 10
0.0
 20
0.0
 30
0.0
 70
   128
 71
     4
 72
     5
 73
     6
  0
VERTEX
  5
6B2
  8
0
 62
     9
 10
0.0
 20
0.0
 30
0.0
 70
   128
 71
     9
 72
     8
 73
     7
  0
VERTEX
  5
6B3
  8
0
 62
     9
 10
0.0
 20
0.0
 30
0.0
 70
   128
 71
     8
 72
     9
 73
    10
  0
VERTEX
  5
6B4
  8
0
 62
     9
 10
0.0
 20
0.0
 30
0.0
 70
   128
 71
    10
 72
    11
 73
     8
  0
VERTEX
  5
6B5
  8
0
 62
     9
 10
0.0
 20
0.0
 30
0.0
 70
   128
 71
     7
 72
     6
 73
     9
  0
VERTEX
  5
6B6
  8
0
 62
     9
 10
0.0
 20
0.0
 30
0.0
 70
   128
 71
     6
 72
     7
 73
     4
  0
VERTEX
  5
6B7
  8
0
 62
     9
 10
0.0
 20
0.0
 30
0.0
 70
   128
 71
     1
 72
    12
 73
     5
  0
VERTEX
  5
6B8
  8
0
 62
     9
 10
0.0
 20
0.0
 30
0.0
 70
   128
 71
     1
 72
     4
 73
     3
  0
SEQEND
  5
6B9
  8
0
 62
     9
  0
ENDBLK
  5
6BC
  8
0
  0
BLOCK
  8
0
  2
E3_NODE_26_
 70
     0
 10
0.0
 20
0.0
 30
0.0
  3
E3_NODE_26_
  1

  0
POLYLINE
  5
6BE
  8
0
 62
     9
 66
     1
 10
0.0
 20
0.0
 30
0.0
 70
    64
 71
    69
 72
    67
  0
VERTEX
  5
6BF
  8
0
 10
137.5429992675781
 20
-13.88599967956543
 30
-73.56800079345703
 70
   192
  0
VERTEX
  5
6C0
  8
0
 10
138.8320007324219
 20
-12.46700000762939
 30
-73.26300048828125
 70
   192
  0
VERTEX
  5
6C1
  8
0
 10
134.0099945068359
 20
-15.32499980926514
 30
-40.66699981689453
 70
   192
  0
VERTEX
  5
6C2
  8
0
 10
127.4850006103516
 20
-18.92700004577637
 30
-8.407999992370605
 70
   192
  0
VERTEX
  5
6C3
  8
0
 10
130.3619995117188
 20
-17.66799926757812
 30
-26.12400054931641
 70
   192
  0
VERTEX
  5
6C4
  8
0
 10
130.7449951171875
 20
-16.80599975585938
 30
-20.85300064086914
 70
   192
  0
VERTEX
  5
6C5
  8
0
 10
132.77099609375
 20
-16.61400032043457
 30
-40.95899963378906
 70
   192
  0
VERTEX
  5
6C6
  8
0
 10
125.8990020751953
 20
-18.60000038146973
 30
8.039999961853027
 70
   192
  0
VERTEX
  5
6C7
  8
0
 10
124.7620010375977
 20
-19.73299980163574
 30
7.849999904632568
 70
   192
  0
VERTEX
  5
6C8
  8
0
 10
126.2539978027344
 20
-19.29100036621094
 30
-1.059000015258789
 70
   192
  0
VERTEX
  5
6C9
  8
0
 10
128.6490020751953
 20
-17.75600051879883
 30
-8.130000114440918
 70
   192
  0
VERTEX
  5
6CA
  8
0
 10
124.8170013427734
 20
-18.12700080871582
 30
15.46399974822998
 70
   192
  0
VERTEX
  5
6CB
  8
0
 10
123.661003112793
 20
-19.24300003051758
 30
15.49899959564209
 70
   192
  0
VERTEX
  5
6CC
  8
0
 10
124.3150024414062
 20
-19.53400039672852
 30
10.95699977874756
 70
   192
  0
VERTEX
  5
6CD
  8
0
 10
123.4459991455078
 20
-18.89699935913086
 30
17.31100082397461
 70
   192
  0
VERTEX
  5
6CE
  8
0
 10
124.177001953125
 20
-15.9060001373291
 30
22.39500045776367
 70
   192
  0
VERTEX
  5
6CF
  8
0
 10
122.9449996948242
 20
-16.92399978637695
 30
22.85199928283691
 70
   192
  0
VERTEX
  5
6D0
  8
0
 10
123.3300018310547
 20
-18.4419994354248
 30
18.58799934387207
 70
   192
  0
VERTEX
  5
6D1
  8
0
 10
124.6149978637695
 20
-17.79100036621094
 30
17.1919994354248
 70
   192
  0
VERTEX
  5
6D2
  8
0
 10
122.8929977416992
 20
-16.45199966430664
 30
23.71199989318848
 70
   192
  0
VERTEX
  5
6D3
  8
0
 10
124.0640029907227
 20
-12.21500015258789
 30
27.14299964904785
 70
   192
  0
VERTEX
  5
6D4
  8
0
 10
122.7610015869141
 20
-12.99199962615967
 30
28.0049991607666
 70
   192
  0
VERTEX
  5
6D5
  8
0
 10
122.8649978637695
 20
-15.7189998626709
 30
24.62199974060059
 70
   192
  0
VERTEX
  5
6D6
  8
0
 10
124.1370010375977
 20
-15.46000003814697
 30
23.1919994354248
 70
   192
  0
VERTEX
  5
6D7
  8
0
 10
122.7630004882812
 20
-11.79100036621094
 30
29.01099967956543
 70
   192
  0
VERTEX
  5
6D8
  8
0
 10
122.8369979858398
 20
-6.473000049591064
 30
31.90200042724609
 70
   192
  0
VERTEX
  5
6D9
  8
0
 10
122.7679977416992
 20
-11.48700046539307
 30
29.17600059509277
 70
   192
  0
VERTEX
  5
6DA
  8
0
 10
124.1139984130859
 20
-9.404000282287598
 30
28.96699905395508
 70
   192
  0
VERTEX
  5
6DB
  8
0
 10
124.0790023803711
 20
-11.08800029754639
 30
28.06900024414062
 70
   192
  0
VERTEX
  5
6DC
  8
0
 10
124.1829986572266
 20
-6.080999851226807
 30
30.74099922180176
 70
   192
  0
VERTEX
  5
6DD
  8
0
 10
124.2409973144531
 20
-0.8949999809265137
 30
31.77000045776367
 70
   192
  0
VERTEX
  5
6DE
  8
0
 10
122.8820037841797
 20
-0.9549999833106995
 30
33.01599884033203
 70
   192
  0
VERTEX
  5
6DF
  8
0
 10
122.8399963378906
 20
-6.03000020980835
 30
31.99099922180176
 70
   192
  0
VERTEX
  5
6E0
  8
0
 10
122.8840026855469
 20
0.0
 30
33.04000091552734
 70
   192
  0
VERTEX
  5
6E1
  8
0
 10
124.2419967651367
 20
0.0230000000447035
 30
31.79299926757812
 70
   192
  0
VERTEX
  5
6E2
  8
0
 10
122.8840026855469
 20
0.0240000002086163
 30
33.04100036621094
 70
   192
  0
VERTEX
  5
6E3
  8
0
 10
124.197998046875
 20
5.242000102996826
 30
31.01499938964844
 70
   192
  0
VERTEX
  5
6E4
  8
0
 10
124.1849975585938
 20
5.986999988555908
 30
30.77400016784668
 70
   192
  0
VERTEX
  5
6E5
  8
0
 10
122.8420028686523
 20
6.040999889373779
 30
32.04700088500977
 70
   192
  0
VERTEX
  5
6E6
  8
0
 10
122.8379974365234
 20
6.373000144958496
 30
31.9379997253418
 70
   192
  0
VERTEX
  5
6E7
  8
0
 10
124.1119995117188
 20
9.468000411987305
 30
28.98200035095215
 70
   192
  0
VERTEX
  5
6E8
  8
0
 10
122.7669982910156
 20
11.4060001373291
 30
29.29899978637695
 70
   192
  0
VERTEX
  5
6E9
  8
0
 10
124.0859985351562
 20
10.72599983215332
 30
28.33399963378906
 70
   192
  0
VERTEX
  5
6EA
  8
0
 10
124.0759963989258
 20
11.27999973297119
 30
27.92200088500977
 70
   192
  0
VERTEX
  5
6EB
  8
0
 10
122.7620010375977
 20
11.99499988555908
 30
28.85199928283691
 70
   192
  0
VERTEX
  5
6EC
  8
0
 10
124.0970001220703
 20
14.79899978637695
 30
24.21999931335449
 70
   192
  0
VERTEX
  5
6ED
  8
0
 10
124.1309967041016
 20
15.36900043487549
 30
23.3430004119873
 70
   192
  0
VERTEX
  5
6EE
  8
0
 10
122.8840026855469
 20
16.35600090026855
 30
23.875
 70
   192
  0
VERTEX
  5
6EF
  8
0
 10
122.8430023193359
 20
15.82600021362305
 30
24.70700073242188
 70
   192
  0
VERTEX
  5
6F0
  8
0
 10
123.3300018310547
 20
18.63299942016602
 30
18.3799991607666
 70
   192
  0
VERTEX
  5
6F1
  8
0
 10
124.2839965820312
 20
19.67200088500977
 30
10.9680004119873
 70
   192
  0
VERTEX
  5
6F2
  8
0
 10
124.5080032348633
 20
17.53700065612793
 30
18.20499992370605
 70
   192
  0
VERTEX
  5
6F3
  8
0
 10
125.4339981079102
 20
18.55500030517578
 30
11.01000022888184
 70
   192
  0
VERTEX
  5
6F4
  8
0
 10
124.2949981689453
 20
19.68400001525879
 30
10.88399982452393
 70
   192
  0
VERTEX
  5
6F5
  8
0
 10
125.1689987182617
 20
19.6870002746582
 30
5.329999923706055
 70
   192
  0
VERTEX
  5
6F6
  8
0
 10
128.7010040283203
 20
17.73500061035156
 30
-8.435999870300293
 70
   192
  0
VERTEX
  5
6F7
  8
0
 10
127.536003112793
 20
18.9060001373291
 30
-8.71399974822998
 70
   192
  0
VERTEX
  5
6F8
  8
0
 10
126.2460021972656
 20
19.33200073242188
 30
-1.057000041007996
 70
   192
  0
VERTEX
  5
6F9
  8
0
 10
126.3079986572266
 20
18.55100059509277
 30
5.553999900817871
 70
   192
  0
VERTEX
  5
6FA
  8
0
 10
136.5299987792969
 20
13.94999980926514
 30
-57.16899871826172
 70
   192
  0
VERTEX
  5
6FB
  8
0
 10
135.2610015869141
 20
15.30500030517578
 30
-57.47000122070312
 70
   192
  0
VERTEX
  5
6FC
  8
0
 10
130.2969970703125
 20
17.61899948120117
 30
-26.13800048828125
 70
   192
  0
VERTEX
  5
6FD
  8
0
 10
130.6970062255859
 20
16.77000045776367
 30
-20.86000061035156
 70
   192
  0
VERTEX
  5
6FE
  8
0
 10
136.3119964599609
 20
14.67899990081787
 30
-64.74099731445312
 70
   192
  0
VERTEX
  5
6FF
  8
0
 10
137.5429992675781
 20
13.88599967956543
 30
-73.56800079345703
 70
   192
  0
VERTEX
  5
700
  8
0
 10
137.5899963378906
 20
13.29399967193604
 30
-64.43599700927734
 70
   192
  0
VERTEX
  5
701
  8
0
 10
138.8320007324219
 20
12.46700000762939
 30
-73.26300048828125
 70
   192
  0
VERTEX
  5
702
  8
0
 10
122.8369979858398
 20
15.75
 30
24.82600021362305
 70
   192
  0
VERTEX
  5
703
  8
0
 10
122.8479995727539
 20
5.581999778747559
 30
32.19800186157227
 70
   192
  0
VERTEX
  5
704
  8
0
 62
     9
 10
0.0
 20
0.0
 30
0.0
 70
   128
 71
     3
 72
     2
 73
     1
  0
VERTEX
  5
705
  8
0
 62
     9
 10
0.0
 20
0.0
 30
0.0
 70
   128
 71
     6
 72
     5
 73
     4
  0
VERTEX
  5
706
  8
0
 62
     9
 10
0.0
 20
0.0
 30
0.0
 70
   128
 71
     5
 72
     6
 73
     3
  0
VERTEX
  5
707
  8
0
 62
     9
 10
0.0
 20
0.0
 30
0.0
 70
   128
 71
     3
 72
     7
 73
     5
  0
VERTEX
  5
708
  8
0
 62
     9
 10
0.0
 20
0.0
 30
0.0
 70
   128
 71
    10
 72
     9
 73
     8
  0
VERTEX
  5
709
  8
0
 62
     9
 10
0.0
 20
0.0
 30
0.0
 70
   128
 71
     8
 72
    11
 73
    10
  0
VERTEX
  5
70A
  8
0
 62
     9
 10
0.0
 20
0.0
 30
0.0
 70
   128
 71
    14
 72
    13
 73
    12
  0
VERTEX
  5
70B
  8
0
 62
     9
 10
0.0
 20
0.0
 30
0.0
 70
   128
 71
    12
 72
     8
 73
    14
  0
VERTEX
  5
70C
  8
0
 62
     9
 10
0.0
 20
0.0
 30
0.0
 70
   128
 71
    12
 72
    13
 73
    15
  0
VERTEX
  5
70D
  8
0
 62
     9
 10
0.0
 20
0.0
 30
0.0
 70
   128
 71
    18
 72
    17
 73
    16
  0
VERTEX
  5
70E
  8
0
 62
     9
 10
0.0
 20
0.0
 30
0.0
 70
   128
 71
    16
 72
    19
 73
    18
  0
VERTEX
  5
70F
  8
0
 62
     9
 10
0.0
 20
0.0
 30
0.0
 70
   128
 71
    16
 72
    17
 73
    20
  0
VERTEX
  5
710
  8
0
 62
     9
 10
0.0
 20
0.0
 30
0.0
 70
   128
 71
    23
 72
    22
 73
    21
  0
VERTEX
  5
711
  8
0
 62
     9
 10
0.0
 20
0.0
 30
0.0
 70
   128
 71
    21
 72
    24
 73
    23
  0
VERTEX
  5
712
  8
0
 62
     9
 10
0.0
 20
0.0
 30
0.0
 70
   128
 71
    21
 72
    22
 73
    25
  0
VERTEX
  5
713
  8
0
 62
     9
 10
0.0
 20
0.0
 30
0.0
 70
   128
 71
    28
 72
    27
 73
    26
  0
VERTEX
  5
714
  8
0
 62
     9
 10
0.0
 20
0.0
 30
0.0
 70
   128
 71
    28
 72
    29
 73
    27
  0
VERTEX
  5
715
  8
0
 62
     9
 10
0.0
 20
0.0
 30
0.0
 70
   128
 71
    26
 72
    30
 73
    28
  0
VERTEX
  5
716
  8
0
 62
     9
 10
0.0
 20
0.0
 30
0.0
 70
   128
 71
    33
 72
    32
 73
    31
  0
VERTEX
  5
717
  8
0
 62
     9
 10
0.0
 20
0.0
 30
0.0
 70
   128
 71
    31
 72
    30
 73
    33
  0
VERTEX
  5
718
  8
0
 62
     9
 10
0.0
 20
0.0
 30
0.0
 70
   128
 71
    31
 72
    32
 73
    34
  0
VERTEX
  5
719
  8
0
 62
     9
 10
0.0
 20
0.0
 30
0.0
 70
   128
 71
    34
 72
    36
 73
    35
  0
VERTEX
  5
71A
  8
0
 62
     9
 10
0.0
 20
0.0
 30
0.0
 70
   128
 71
    37
 72
    35
 73
    36
  0
VERTEX
  5
71B
  8
0
 62
     9
 10
0.0
 20
0.0
 30
0.0
 70
   128
 71
    39
 72
    38
 73
    37
  0
VERTEX
  5
71C
  8
0
 62
     9
 10
0.0
 20
0.0
 30
0.0
 70
   128
 71
    39
 72
    40
 73
    38
  0
VERTEX
  5
71D
  8
0
 62
     9
 10
0.0
 20
0.0
 30
0.0
 70
   128
 71
    41
 72
    38
 73
    40
  0
VERTEX
  5
71E
  8
0
 62
     9
 10
0.0
 20
0.0
 30
0.0
 70
   128
 71
    40
 72
    42
 73
    41
  0
VERTEX
  5
71F
  8
0
 62
     9
 10
0.0
 20
0.0
 30
0.0
 70
   128
 71
    44
 72
    43
 73
    42
  0
VERTEX
  5
720
  8
0
 62
     9
 10
0.0
 20
0.0
 30
0.0
 70
   128
 71
    46
 72
    44
 73
    45
  0
VERTEX
  5
721
  8
0
 62
     9
 10
0.0
 20
0.0
 30
0.0
 70
   128
 71
    49
 72
    48
 73
    47
  0
VERTEX
  5
722
  8
0
 62
     9
 10
0.0
 20
0.0
 30
0.0
 70
   128
 71
    47
 72
    46
 73
    49
  0
VERTEX
  5
723
  8
0
 62
     9
 10
0.0
 20
0.0
 30
0.0
 70
   128
 71
    47
 72
    48
 73
    50
  0
VERTEX
  5
724
  8
0
 62
     9
 10
0.0
 20
0.0
 30
0.0
 70
   128
 71
    52
 72
    50
 73
    51
  0
VERTEX
  5
725
  8
0
 62
     9
 10
0.0
 20
0.0
 30
0.0
 70
   128
 71
    51
 72
    54
 73
    53
  0
VERTEX
  5
726
  8
0
 62
     9
 10
0.0
 20
0.0
 30
0.0
 70
   128
 71
    53
 72
    54
 73
    55
  0
VERTEX
  5
727
  8
0
 62
     9
 10
0.0
 20
0.0
 30
0.0
 70
   128
 71
    58
 72
    57
 73
    56
  0
VERTEX
  5
728
  8
0
 62
     9
 10
0.0
 20
0.0
 30
0.0
 70
   128
 71
    56
 72
    59
 73
    58
  0
VERTEX
  5
729
  8
0
 62
     9
 10
0.0
 20
0.0
 30
0.0
 70
   128
 71
    62
 72
    61
 73
    60
  0
VERTEX
  5
72A
  8
0
 62
     9
 10
0.0
 20
0.0
 30
0.0
 70
   128
 71
    63
 72
    56
 73
    57
  0
VERTEX
  5
72B
  8
0
 62
     9
 10
0.0
 20
0.0
 30
0.0
 70
   128
 71
    57
 72
    62
 73
    63
  0
VERTEX
  5
72C
  8
0
 62
     9
 10
0.0
 20
0.0
 30
0.0
 70
   128
 71
    60
 72
    61
 73
    64
  0
VERTEX
  5
72D
  8
0
 62
     9
 10
0.0
 20
0.0
 30
0.0
 70
   128
 71
    66
 72
    64
 73
    65
  0
VERTEX
  5
72E
  8
0
 62
     9
 10
0.0
 20
0.0
 30
0.0
 70
   128
 71
    65
 72
    67
 73
    66
  0
VERTEX
  5
72F
  8
0
 62
     9
 10
0.0
 20
0.0
 30
0.0
 70
   128
 71
    64
 72
    66
 73
    60
  0
VERTEX
  5
730
  8
0
 62
     9
 10
0.0
 20
0.0
 30
0.0
 70
   128
 71
    60
 72
    63
 73
    62
  0
VERTEX
  5
731
  8
0
 62
     9
 10
0.0
 20
0.0
 30
0.0
 70
   128
 71
    59
 72
    55
 73
    58
  0
VERTEX
  5
732
  8
0
 62
     9
 10
0.0
 20
0.0
 30
0.0
 70
   128
 71
    55
 72
    59
 73
    53
  0
VERTEX
  5
733
  8
0
 62
     9
 10
0.0
 20
0.0
 30
0.0
 70
   128
 71
    51
 72
    53
 73
    52
  0
VERTEX
  5
734
  8
0
 62
     9
 10
0.0
 20
0.0
 30
0.0
 70
   128
 71
    50
 72
    52
 73
    47
  0
VERTEX
  5
735
  8
0
 62
     9
 10
0.0
 20
0.0
 30
0.0
 70
   128
 71
    46
 72
    68
 73
    49
  0
VERTEX
  5
736
  8
0
 62
     9
 10
0.0
 20
0.0
 30
0.0
 70
   128
 71
    45
 72
    68
 73
    46
  0
VERTEX
  5
737
  8
0
 62
     9
 10
0.0
 20
0.0
 30
0.0
 70
   128
 71
    42
 72
    45
 73
    44
  0
VERTEX
  5
738
  8
0
 62
     9
 10
0.0
 20
0.0
 30
0.0
 70
   128
 71
    42
 72
    43
 73
    41
  0
VERTEX
  5
739
  8
0
 62
     9
 10
0.0
 20
0.0
 30
0.0
 70
   128
 71
    37
 72
    69
 73
    39
  0
VERTEX
  5
73A
  8
0
 62
     9
 10
0.0
 20
0.0
 30
0.0
 70
   128
 71
    36
 72
    69
 73
    37
  0
VERTEX
  5
73B
  8
0
 62
     9
 10
0.0
 20
0.0
 30
0.0
 70
   128
 71
    34
 72
    35
 73
    31
  0
VERTEX
  5
73C
  8
0
 62
     9
 10
0.0
 20
0.0
 30
0.0
 70
   128
 71
    30
 72
    26
 73
    33
  0
VERTEX
  5
73D
  8
0
 62
     9
 10
0.0
 20
0.0
 30
0.0
 70
   128
 71
    29
 72
    25
 73
    27
  0
VERTEX
  5
73E
  8
0
 62
     9
 10
0.0
 20
0.0
 30
0.0
 70
   128
 71
    25
 72
    29
 73
    21
  0
VERTEX
  5
73F
  8
0
 62
     9
 10
0.0
 20
0.0
 30
0.0
 70
   128
 71
    24
 72
    20
 73
    23
  0
VERTEX
  5
740
  8
0
 62
     9
 10
0.0
 20
0.0
 30
0.0
 70
   128
 71
    20
 72
    24
 73
    16
  0
VERTEX
  5
741
  8
0
 62
     9
 10
0.0
 20
0.0
 30
0.0
 70
   128
 71
    19
 72
    15
 73
    18
  0
VERTEX
  5
742
  8
0
 62
     9
 10
0.0
 20
0.0
 30
0.0
 70
   128
 71
    15
 72
    19
 73
    12
  0
VERTEX
  5
743
  8
0
 62
     9
 10
0.0
 20
0.0
 30
0.0
 70
   128
 71
     8
 72
     9
 73
    14
  0
VERTEX
  5
744
  8
0
 62
     9
 10
0.0
 20
0.0
 30
0.0
 70
   128
 71
    11
 72
     4
 73
    10
  0
VERTEX
  5
745
  8
0
 62
     9
 10
0.0
 20
0.0
 30
0.0
 70
   128
 71
     4
 72
    11
 73
     6
  0
VERTEX
  5
746
  8
0
 62
     9
 10
0.0
 20
0.0
 30
0.0
 70
   128
 71
     1
 72
     7
 73
     3
  0
SEQEND
  5
747
  8
0
 62
     9
  0
ENDBLK
  5
74A
  8
0
  0
BLOCK
  8
0
  2
E3_NODE_27_
 70
     0
 10
0.0
 20
0.0
 30
0.0
  3
E3_NODE_27_
  1

  0
POLYLINE
  5
74C
  8
0
 62
     9
 66
     1
 10
0.0
 20
0.0
 30
0.0
 70
    64
 71
    10
 72
     8
  0
VERTEX
  5
74D
  8
0
 10
138.0679931640625
 20
-9.79800033569336
 30
-78.01799774169922
 70
   192
  0
VERTEX
  5
74E
  8
0
 10
139.3370056152344
 20
-9.5649995803833
 30
-76.37000274658203
 70
   192
  0
VERTEX
  5
74F
  8
0
 10
139.2519989013672
 20
-10.69400024414062
 30
-75.96299743652344
 70
   192
  0
VERTEX
  5
750
  8
0
 10
138.0180053710938
 20
-11.39299964904785
 30
-77.43199920654297
 70
   192
  0
VERTEX
  5
751
  8
0
 10
139.1230010986328
 20
-11.6230001449585
 30
-75.20999908447266
 70
   192
  0
VERTEX
  5
752
  8
0
 10
137.89599609375
 20
-12.70300006866455
 30
-76.35299682617188
 70
   192
  0
VERTEX
  5
753
  8
0
 10
138.9660034179688
 20
-12.24100017547607
 30
-74.20099639892578
 70
   192
  0
VERTEX
  5
754
  8
0
 10
137.7160034179688
 20
-13.57299995422363
 30
-74.90799713134766
 70
   192
  0
VERTEX
  5
755
  8
0
 10
138.8320007324219
 20
-12.46700000762939
 30
-73.26300048828125
 70
   192
  0
VERTEX
  5
756
  8
0
 10
137.5429992675781
 20
-13.88599967956543
 30
-73.56800079345703
 70
   192
  0
VERTEX
  5
757
  8
0
 62
     9
 10
0.0
 20
0.0
 30
0.0
 70
   128
 71
     3
 72
     2
 73
     1
  0
VERTEX
  5
758
  8
0
 62
     9
 10
0.0
 20
0.0
 30
0.0
 70
   128
 71
     5
 72
     3
 73
     4
  0
VERTEX
  5
759
  8
0
 62
     9
 10
0.0
 20
0.0
 30
0.0
 70
   128
 71
     7
 72
     5
 73
     6
  0
VERTEX
  5
75A
  8
0
 62
     9
 10
0.0
 20
0.0
 30
0.0
 70
   128
 71
     9
 72
     7
 73
     8
  0
VERTEX
  5
75B
  8
0
 62
     9
 10
0.0
 20
0.0
 30
0.0
 70
   128
 71
     8
 72
    10
 73
     9
  0
VERTEX
  5
75C
  8
0
 62
     9
 10
0.0
 20
0.0
 30
0.0
 70
   128
 71
     6
 72
     8
 73
     7
  0
VERTEX
  5
75D
  8
0
 62
     9
 10
0.0
 20
0.0
 30
0.0
 70
   128
 71
     4
 72
     6
 73
     5
  0
VERTEX
  5
75E
  8
0
 62
     9
 10
0.0
 20
0.0
 30
0.0
 70
   128
 71
     1
 72
     4
 73
     3
  0
SEQEND
  5
75F
  8
0
 62
     9
  0
ENDBLK
  5
762
  8
0
  0
BLOCK
  8
0
  2
E3_NODE_28_
 70
     0
 10
0.0
 20
0.0
 30
0.0
  3
E3_NODE_28_
  1

  0
POLYLINE
  5
764
  8
0
 62
     9
 66
     1
 10
0.0
 20
0.0
 30
0.0
 70
    64
 71
     8
 72
     6
  0
VERTEX
  5
765
  8
0
 10
138.0679931640625
 20
-9.79800033569336
 30
-78.01799774169922
 70
   192
  0
VERTEX
  5
766
  8
0
 10
138.3009948730469
 20
-0.261000007390976
 30
-78.88300323486328
 70
   192
  0
VERTEX
  5
767
  8
0
 10
139.5690002441406
 20
-0.2549999952316284
 30
-77.2229995727539
 70
   192
  0
VERTEX
  5
768
  8
0
 10
138.0679931640625
 20
9.79800033569336
 30
-78.01799774169922
 70
   192
  0
VERTEX
  5
769
  8
0
 10
139.3370056152344
 20
9.5649995803833
 30
-76.37000274658203
 70
   192
  0
VERTEX
  5
76A
  8
0
 10
139.5619964599609
 20
0.0309999994933605
 30
-77.197998046875
 70
   192
  0
VERTEX
  5
76B
  8
0
 10
138.2949981689453
 20
-0.0020000000949949
 30
-78.86000061035156
 70
   192
  0
VERTEX
  5
76C
  8
0
 10
139.3370056152344
 20
-9.5649995803833
 30
-76.37000274658203
 70
   192
  0
VERTEX
  5
76D
  8
0
 62
     9
 10
0.0
 20
0.0
 30
0.0
 70
   128
 71
     3
 72
     2
 73
     1
  0
VERTEX
  5
76E
  8
0
 62
     9
 10
0.0
 20
0.0
 30
0.0
 70
   128
 71
     6
 72
     5
 73
     4
  0
VERTEX
  5
76F
  8
0
 62
     9
 10
0.0
 20
0.0
 30
0.0
 70
   128
 71
     4
 72
     7
 73
     6
  0
VERTEX
  5
770
  8
0
 62
     9
 10
0.0
 20
0.0
 30
0.0
 70
   128
 71
     7
 72
     2
 73
     3
  0
VERTEX
  5
771
  8
0
 62
     9
 10
0.0
 20
0.0
 30
0.0
 70
   128
 71
     7
 72
     3
 73
     6
  0
VERTEX
  5
772
  8
0
 62
     9
 10
0.0
 20
0.0
 30
0.0
 70
   128
 71
     1
 72
     8
 73
     3
  0
SEQEND
  5
773
  8
0
 62
     9
  0
ENDBLK
  5
776
  8
0
  0
BLOCK
  8
0
  2
E3_NODE_29_
 70
     0
 10
0.0
 20
0.0
 30
0.0
  3
E3_NODE_29_
  1

  0
POLYLINE
  5
778
  8
0
 62
     9
 66
     1
 10
0.0
 20
0.0
 30
0.0
 70
    64
 71
    10
 72
     8
  0
VERTEX
  5
779
  8
0
 10
137.7489929199219
 20
13.46300029754639
 30
-75.16799926757812
 70
   192
  0
VERTEX
  5
77A
  8
0
 10
137.5429992675781
 20
13.88599967956543
 30
-73.56800079345703
 70
   192
  0
VERTEX
  5
77B
  8
0
 10
138.8320007324219
 20
12.46700000762939
 30
-73.26300048828125
 70
   192
  0
VERTEX
  5
77C
  8
0
 10
137.9179992675781
 20
12.53400039672852
 30
-76.53900146484375
 70
   192
  0
VERTEX
  5
77D
  8
0
 10
138.9929962158203
 20
12.16300010681152
 30
-74.38300323486328
 70
   192
  0
VERTEX
  5
77E
  8
0
 10
138.0290069580078
 20
11.19499969482422
 30
-77.54000091552734
 70
   192
  0
VERTEX
  5
77F
  8
0
 10
139.1439971923828
 20
11.50300025939941
 30
-75.34100341796875
 70
   192
  0
VERTEX
  5
780
  8
0
 10
138.0679931640625
 20
9.79800033569336
 30
-78.01799774169922
 70
   192
  0
VERTEX
  5
781
  8
0
 10
139.2660064697266
 20
10.55399990081787
 30
-76.03800201416016
 70
   192
  0
VERTEX
  5
782
  8
0
 10
139.3370056152344
 20
9.5649995803833
 30
-76.37000274658203
 70
   192
  0
VERTEX
  5
783
  8
0
 62
     9
 10
0.0
 20
0.0
 30
0.0
 70
   128
 71
     3
 72
     2
 73
     1
  0
VERTEX
  5
784
  8
0
 62
     9
 10
0.0
 20
0.0
 30
0.0
 70
   128
 71
     5
 72
     1
 73
     4
  0
VERTEX
  5
785
  8
0
 62
     9
 10
0.0
 20
0.0
 30
0.0
 70
   128
 71
     7
 72
     4
 73
     6
  0
VERTEX
  5
786
  8
0
 62
     9
 10
0.0
 20
0.0
 30
0.0
 70
   128
 71
     9
 72
     6
 73
     8
  0
VERTEX
  5
787
  8
0
 62
     9
 10
0.0
 20
0.0
 30
0.0
 70
   128
 71
     8
 72
    10
 73
     9
  0
VERTEX
  5
788
  8
0
 62
     9
 10
0.0
 20
0.0
 30
0.0
 70
   128
 71
     6
 72
     9
 73
     7
  0
VERTEX
  5
789
  8
0
 62
     9
 10
0.0
 20
0.0
 30
0.0
 70
   128
 71
     4
 72
     7
 73
     5
  0
VERTEX
  5
78A
  8
0
 62
     9
 10
0.0
 20
0.0
 30
0.0
 70
   128
 71
     1
 72
     5
 73
     3
  0
SEQEND
  5
78B
  8
0
 62
     9
  0
ENDBLK
  5
78E
  8
0
  0
BLOCK
  8
0
  2
E3_NODE_30_
 70
     0
 10
0.0
 20
0.0
 30
0.0
  3
E3_NODE_30_
  1

  0
POLYLINE
  5
790
  8
0
 62
     9
 66
     1
 10
0.0
 20
0.0
 30
0.0
 70
    64
 71
     9
 72
     7
  0
VERTEX
  5
791
  8
0
 10
138.0679931640625
 20
9.79800033569336
 30
-78.01799774169922
 70
   192
  0
VERTEX
  5
792
  8
0
 10
138.2949981689453
 20
-0.0020000000949949
 30
-78.86000061035156
 70
   192
  0
VERTEX
  5
793
  8
0
 10
137.4960021972656
 20
0.5230000019073486
 30
-79.0009994506836
 70
   192
  0
VERTEX
  5
794
  8
0
 10
137.4960021972656
 20
0.0
 30
-79.0009994506836
 70
   192
  0
VERTEX
  5
795
  8
0
 10
138.3009948730469
 20
-0.261000007390976
 30
-78.88300323486328
 70
   192
  0
VERTEX
  5
796
  8
0
 10
138.0679931640625
 20
-9.79800033569336
 30
-78.01799774169922
 70
   192
  0
VERTEX
  5
797
  8
0
 10
137.4420013427734
 20
-9.883000373840332
 30
-78.09500122070312
 70
   192
  0
VERTEX
  5
798
  8
0
 10
137.4960021972656
 20
-0.5960000157356262
 30
-79.0
 70
   192
  0
VERTEX
  5
799
  8
0
 10
137.4420013427734
 20
9.883000373840332
 30
-78.09500122070312
 70
   192
  0
VERTEX
  5
79A
  8
0
 62
     9
 10
0.0
 20
0.0
 30
0.0
 70
   128
 71
     3
 72
     2
 73
     1
  0
VERTEX
  5
79B
  8
0
 62
     9
 10
0.0
 20
0.0
 30
0.0
 70
   128
 71
     3
 72
     4
 73
     2
  0
VERTEX
  5
79C
  8
0
 62
     9
 10
0.0
 20
0.0
 30
0.0
 70
   128
 71
     5
 72
     2
 73
     4
  0
VERTEX
  5
79D
  8
0
 62
     9
 10
0.0
 20
0.0
 30
0.0
 70
   128
 71
     8
 72
     7
 73
     6
  0
VERTEX
  5
79E
  8
0
 62
     9
 10
0.0
 20
0.0
 30
0.0
 70
   128
 71
     6
 72
     5
 73
     8
  0
VERTEX
  5
79F
  8
0
 62
     9
 10
0.0
 20
0.0
 30
0.0
 70
   128
 71
     4
 72
     8
 73
     5
  0
VERTEX
  5
7A0
  8
0
 62
     9
 10
0.0
 20
0.0
 30
0.0
 70
   128
 71
     1
 72
     9
 73
     3
  0
SEQEND
  5
7A1
  8
0
 62
     9
  0
ENDBLK
  5
7A4
  8
0
  0
BLOCK
  8
0
  2
E3_NODE_31_
 70
     0
 10
0.0
 20
0.0
 30
0.0
  3
E3_NODE_31_
  1

  0
POLYLINE
  5
7A6
  8
0
 62
     9
 66
     1
 10
0.0
 20
0.0
 30
0.0
 70
    64
 71
    47
 72
    52
  0
VERTEX
  5
7A7
  8
0
 10
125.338996887207
 20
14.01500034332275
 30
17.42700004577637
 70
   192
  0
VERTEX
  5
7A8
  8
0
 10
126.3079986572266
 20
18.55100059509277
 30
5.553999900817871
 70
   192
  0
VERTEX
  5
7A9
  8
0
 10
125.4339981079102
 20
18.55500030517578
 30
11.01000022888184
 70
   192
  0
VERTEX
  5
7AA
  8
0
 10
124.1309967041016
 20
15.36900043487549
 30
23.3430004119873
 70
   192
  0
VERTEX
  5
7AB
  8
0
 10
124.0970001220703
 20
14.79899978637695
 30
24.21999931335449
 70
   192
  0
VERTEX
  5
7AC
  8
0
 10
124.5080032348633
 20
17.53700065612793
 30
18.20499992370605
 70
   192
  0
VERTEX
  5
7AD
  8
0
 10
124.0759963989258
 20
11.27999973297119
 30
27.92200088500977
 70
   192
  0
VERTEX
  5
7AE
  8
0
 10
124.0859985351562
 20
10.72599983215332
 30
28.33399963378906
 70
   192
  0
VERTEX
  5
7AF
  8
0
 10
124.1119995117188
 20
9.468000411987305
 30
28.98200035095215
 70
   192
  0
VERTEX
  5
7B0
  8
0
 10
131.7799987792969
 20
9.454000473022461
 30
-20.49900054931641
 70
   192
  0
VERTEX
  5
7B1
  8
0
 10
128.7010040283203
 20
17.73500061035156
 30
-8.435999870300293
 70
   192
  0
VERTEX
  5
7B2
  8
0
 10
130.6970062255859
 20
16.77000045776367
 30
-20.86000061035156
 70
   192
  0
VERTEX
  5
7B3
  8
0
 10
132.2310028076172
 20
0.0309999994933605
 30
-20.34000015258789
 70
   192
  0
VERTEX
  5
7B4
  8
0
 10
124.1849975585938
 20
5.986999988555908
 30
30.77400016784668
 70
   192
  0
VERTEX
  5
7B5
  8
0
 10
124.197998046875
 20
5.242000102996826
 30
31.01499938964844
 70
   192
  0
VERTEX
  5
7B6
  8
0
 10
124.1829986572266
 20
-6.080999851226807
 30
30.74099922180176
 70
   192
  0
VERTEX
  5
7B7
  8
0
 10
124.1139984130859
 20
-9.404000282287598
 30
28.96699905395508
 70
   192
  0
VERTEX
  5
7B8
  8
0
 10
124.2409973144531
 20
-0.8949999809265137
 30
31.77000045776367
 70
   192
  0
VERTEX
  5
7B9
  8
0
 10
124.2419967651367
 20
0.0230000000447035
 30
31.79299926757812
 70
   192
  0
VERTEX
  5
7BA
  8
0
 10
131.7859954833984
 20
-9.390999794006348
 30
-20.49699974060059
 70
   192
  0
VERTEX
  5
7BB
  8
0
 10
125.1449966430664
 20
-14.00800037384033
 30
18.64200019836426
 70
   192
  0
VERTEX
  5
7BC
  8
0
 10
125.8990020751953
 20
-18.60000038146973
 30
8.039999961853027
 70
   192
  0
VERTEX
  5
7BD
  8
0
 10
124.0790023803711
 20
-11.08800029754639
 30
28.06900024414062
 70
   192
  0
VERTEX
  5
7BE
  8
0
 10
124.0640029907227
 20
-12.21500015258789
 30
27.14299964904785
 70
   192
  0
VERTEX
  5
7BF
  8
0
 10
124.1370010375977
 20
-15.46000003814697
 30
23.1919994354248
 70
   192
  0
VERTEX
  5
7C0
  8
0
 10
124.177001953125
 20
-15.9060001373291
 30
22.39500045776367
 70
   192
  0
VERTEX
  5
7C1
  8
0
 10
124.6149978637695
 20
-17.79100036621094
 30
17.1919994354248
 70
   192
  0
VERTEX
  5
7C2
  8
0
 10
124.8170013427734
 20
-18.12700080871582
 30
15.46399974822998
 70
   192
  0
VERTEX
  5
7C3
  8
0
 10
128.6490020751953
 20
-17.75600051879883
 30
-8.130000114440918
 70
   192
  0
VERTEX
  5
7C4
  8
0
 10
139.5690002441406
 20
-0.2549999952316284
 30
-77.2229995727539
 70
   192
  0
VERTEX
  5
7C5
  8
0
 10
138.8320007324219
 20
-12.46700000762939
 30
-73.26300048828125
 70
   192
  0
VERTEX
  5
7C6
  8
0
 10
139.0919952392578
 20
-11.01599979400635
 30
-74.81199645996094
 70
   192
  0
VERTEX
  5
7C7
  8
0
 10
138.9660034179688
 20
-12.24100017547607
 30
-74.20099639892578
 70
   192
  0
VERTEX
  5
7C8
  8
0
 10
139.1230010986328
 20
-11.6230001449585
 30
-75.20999908447266
 70
   192
  0
VERTEX
  5
7C9
  8
0
 10
139.2519989013672
 20
-10.69400024414062
 30
-75.96299743652344
 70
   192
  0
VERTEX
  5
7CA
  8
0
 10
139.3370056152344
 20
-9.5649995803833
 30
-76.37000274658203
 70
   192
  0
VERTEX
  5
7CB
  8
0
 10
139.5619964599609
 20
0.0309999994933605
 30
-77.197998046875
 70
   192
  0
VERTEX
  5
7CC
  8
0
 10
134.0099945068359
 20
-15.32499980926514
 30
-40.66699981689453
 70
   192
  0
VERTEX
  5
7CD
  8
0
 10
130.7449951171875
 20
-16.80599975585938
 30
-20.85300064086914
 70
   192
  0
VERTEX
  5
7CE
  8
0
 10
136.5299987792969
 20
13.94999980926514
 30
-57.16899871826172
 70
   192
  0
VERTEX
  5
7CF
  8
0
 10
137.5899963378906
 20
13.29399967193604
 30
-64.43599700927734
 70
   192
  0
VERTEX
  5
7D0
  8
0
 10
139.0919952392578
 20
11.01599979400635
 30
-74.81199645996094
 70
   192
  0
VERTEX
  5
7D1
  8
0
 10
139.3370056152344
 20
9.5649995803833
 30
-76.37000274658203
 70
   192
  0
VERTEX
  5
7D2
  8
0
 10
139.2660064697266
 20
10.55399990081787
 30
-76.03800201416016
 70
   192
  0
VERTEX
  5
7D3
  8
0
 10
139.1439971923828
 20
11.50300025939941
 30
-75.34100341796875
 70
   192
  0
VERTEX
  5
7D4
  8
0
 10
138.9929962158203
 20
12.16300010681152
 30
-74.38300323486328
 70
   192
  0
VERTEX
  5
7D5
  8
0
 10
138.8320007324219
 20
12.46700000762939
 30
-73.26300048828125
 70
   192
  0
VERTEX
  5
7D6
  8
0
 62
     9
 10
0.0
 20
0.0
 30
0.0
 70
   128
 71
     3
 72
     2
 73
     1
  0
VERTEX
  5
7D7
  8
0
 62
     9
 10
0.0
 20
0.0
 30
0.0
 70
   128
 71
     5
 72
     4
 73
     1
  0
VERTEX
  5
7D8
  8
0
 62
     9
 10
0.0
 20
0.0
 30
0.0
 70
   128
 71
     4
 72
     6
 73
     1
  0
VERTEX
  5
7D9
  8
0
 62
     9
 10
0.0
 20
0.0
 30
0.0
 70
   128
 71
     1
 72
     7
 73
     5
  0
VERTEX
  5
7DA
  8
0
 62
     9
 10
0.0
 20
0.0
 30
0.0
 70
   128
 71
     1
 72
     8
 73
     7
  0
VERTEX
  5
7DB
  8
0
 62
     9
 10
0.0
 20
0.0
 30
0.0
 70
   128
 71
     1
 72
     9
 73
     8
  0
VERTEX
  5
7DC
  8
0
 62
     9
 10
0.0
 20
0.0
 30
0.0
 70
   128
 71
     2
 72
    11
 73
    10
  0
VERTEX
  5
7DD
  8
0
 62
     9
 10
0.0
 20
0.0
 30
0.0
 70
   128
 71
    10
 72
     1
 73
     2
  0
VERTEX
  5
7DE
  8
0
 62
     9
 10
0.0
 20
0.0
 30
0.0
 70
   128
 71
    10
 72
     9
 73
     1
  0
VERTEX
  5
7DF
  8
0
 62
     9
 10
0.0
 20
0.0
 30
0.0
 70
   128
 71
    11
 72
    12
 73
    10
  0
VERTEX
  5
7E0
  8
0
 62
     9
 10
0.0
 20
0.0
 30
0.0
 70
   128
 71
    15
 72
    14
 73
    13
  0
VERTEX
  5
7E1
  8
0
 62
     9
 10
0.0
 20
0.0
 30
0.0
 70
   128
 71
     9
 72
    10
 73
    13
  0
VERTEX
  5
7E2
  8
0
 62
     9
 10
0.0
 20
0.0
 30
0.0
 70
   128
 71
    13
 72
    14
 73
     9
  0
VERTEX
  5
7E3
  8
0
 62
     9
 10
0.0
 20
0.0
 30
0.0
 70
   128
 71
    17
 72
    16
 73
    13
  0
VERTEX
  5
7E4
  8
0
 62
     9
 10
0.0
 20
0.0
 30
0.0
 70
   128
 71
    16
 72
    18
 73
    13
  0
VERTEX
  5
7E5
  8
0
 62
     9
 10
0.0
 20
0.0
 30
0.0
 70
   128
 71
    18
 72
    19
 73
    13
  0
VERTEX
  5
7E6
  8
0
 62
     9
 10
0.0
 20
0.0
 30
0.0
 70
   128
 71
    22
 72
    21
 73
    20
  0
VERTEX
  5
7E7
  8
0
 62
     9
 10
0.0
 20
0.0
 30
0.0
 70
   128
 71
    21
 72
    17
 73
    20
  0
VERTEX
  5
7E8
  8
0
 62
     9
 10
0.0
 20
0.0
 30
0.0
 70
   128
 71
    24
 72
    23
 73
    21
  0
VERTEX
  5
7E9
  8
0
 62
     9
 10
0.0
 20
0.0
 30
0.0
 70
   128
 71
    23
 72
    17
 73
    21
  0
VERTEX
  5
7EA
  8
0
 62
     9
 10
0.0
 20
0.0
 30
0.0
 70
   128
 71
    21
 72
    25
 73
    24
  0
VERTEX
  5
7EB
  8
0
 62
     9
 10
0.0
 20
0.0
 30
0.0
 70
   128
 71
    27
 72
    26
 73
    21
  0
VERTEX
  5
7EC
  8
0
 62
     9
 10
0.0
 20
0.0
 30
0.0
 70
   128
 71
    21
 72
    28
 73
    27
  0
VERTEX
  5
7ED
  8
0
 62
     9
 10
0.0
 20
0.0
 30
0.0
 70
   128
 71
    21
 72
    22
 73
    28
  0
VERTEX
  5
7EE
  8
0
 62
     9
 10
0.0
 20
0.0
 30
0.0
 70
   128
 71
    21
 72
    26
 73
    25
  0
VERTEX
  5
7EF
  8
0
 62
     9
 10
0.0
 20
0.0
 30
0.0
 70
   128
 71
    20
 72
    29
 73
    22
  0
VERTEX
  5
7F0
  8
0
 62
     9
 10
0.0
 20
0.0
 30
0.0
 70
   128
 71
    32
 72
    31
 73
    30
  0
VERTEX
  5
7F1
  8
0
 62
     9
 10
0.0
 20
0.0
 30
0.0
 70
   128
 71
    33
 72
    31
 73
    32
  0
VERTEX
  5
7F2
  8
0
 62
     9
 10
0.0
 20
0.0
 30
0.0
 70
   128
 71
    35
 72
    34
 73
    32
  0
VERTEX
  5
7F3
  8
0
 62
     9
 10
0.0
 20
0.0
 30
0.0
 70
   128
 71
    32
 72
    36
 73
    35
  0
VERTEX
  5
7F4
  8
0
 62
     9
 10
0.0
 20
0.0
 30
0.0
 70
   128
 71
    32
 72
    34
 73
    33
  0
VERTEX
  5
7F5
  8
0
 62
     9
 10
0.0
 20
0.0
 30
0.0
 70
   128
 71
    30
 72
    36
 73
    32
  0
VERTEX
  5
7F6
  8
0
 62
     9
 10
0.0
 20
0.0
 30
0.0
 70
   128
 71
    38
 72
    13
 73
    37
  0
VERTEX
  5
7F7
  8
0
 62
     9
 10
0.0
 20
0.0
 30
0.0
 70
   128
 71
    37
 72
    31
 73
    38
  0
VERTEX
  5
7F8
  8
0
 62
     9
 10
0.0
 20
0.0
 30
0.0
 70
   128
 71
    20
 72
    13
 73
    38
  0
VERTEX
  5
7F9
  8
0
 62
     9
 10
0.0
 20
0.0
 30
0.0
 70
   128
 71
    38
 72
    39
 73
    20
  0
VERTEX
  5
7FA
  8
0
 62
     9
 10
0.0
 20
0.0
 30
0.0
 70
   128
 71
    40
 72
    37
 73
    13
  0
VERTEX
  5
7FB
  8
0
 62
     9
 10
0.0
 20
0.0
 30
0.0
 70
   128
 71
    10
 72
    12
 73
    40
  0
VERTEX
  5
7FC
  8
0
 62
     9
 10
0.0
 20
0.0
 30
0.0
 70
   128
 71
    40
 72
    41
 73
    37
  0
VERTEX
  5
7FD
  8
0
 62
     9
 10
0.0
 20
0.0
 30
0.0
 70
   128
 71
    44
 72
    43
 73
    42
  0
VERTEX
  5
7FE
  8
0
 62
     9
 10
0.0
 20
0.0
 30
0.0
 70
   128
 71
    46
 72
    45
 73
    42
  0
VERTEX
  5
7FF
  8
0
 62
     9
 10
0.0
 20
0.0
 30
0.0
 70
   128
 71
    42
 72
    47
 73
    46
  0
VERTEX
  5
800
  8
0
 62
     9
 10
0.0
 20
0.0
 30
0.0
 70
   128
 71
    42
 72
    43
 73
    37
  0
VERTEX
  5
801
  8
0
 62
     9
 10
0.0
 20
0.0
 30
0.0
 70
   128
 71
    37
 72
    47
 73
    42
  0
VERTEX
  5
802
  8
0
 62
     9
 10
0.0
 20
0.0
 30
0.0
 70
   128
 71
    42
 72
    45
 73
    44
  0
VERTEX
  5
803
  8
0
 62
     9
 10
0.0
 20
0.0
 30
0.0
 70
   128
 71
    37
 72
    41
 73
    47
  0
VERTEX
  5
804
  8
0
 62
     9
 10
0.0
 20
0.0
 30
0.0
 70
   128
 71
    13
 72
    10
 73
    40
  0
VERTEX
  5
805
  8
0
 62
     9
 10
0.0
 20
0.0
 30
0.0
 70
   128
 71
    31
 72
    37
 73
    30
  0
VERTEX
  5
806
  8
0
 62
     9
 10
0.0
 20
0.0
 30
0.0
 70
   128
 71
    20
 72
    39
 73
    29
  0
VERTEX
  5
807
  8
0
 62
     9
 10
0.0
 20
0.0
 30
0.0
 70
   128
 71
    13
 72
    20
 73
    17
  0
VERTEX
  5
808
  8
0
 62
     9
 10
0.0
 20
0.0
 30
0.0
 70
   128
 71
    13
 72
    19
 73
    15
  0
VERTEX
  5
809
  8
0
 62
     9
 10
0.0
 20
0.0
 30
0.0
 70
   128
 71
     1
 72
     6
 73
     3
  0
SEQEND
  5
80A
  8
0
 62
     9
  0
ENDBLK
  5
80D
  8
0
  0
ENDSEC
  0
SECTION
  2
ENTITIES
  0
INSERT
  5
6E
  8
LAYER_1
  2
E3_NODE
 10
0.0
 20
0.0
 30
0.0
  0
INSERT
  5
AD
  8
LAYER_1
  2
E3_NODE_1_
 10
0.0
 20
0.0
 30
0.0
  0
INSERT
  5
123
  8
LAYER_1
  2
E3_NODE_2_
 10
0.0
 20
0.0
 30
0.0
  0
INSERT
  5
147
  8
LAYER_1
  2
E3_NODE_3_
 10
0.0
 20
0.0
 30
0.0
  0
INSERT
  5
18D
  8
LAYER_1
  2
E3_NODE_4_
 10
0.0
 20
0.0
 30
0.0
  0
INSERT
  5
1B1
  8
LAYER_1
  2
E3_NODE_5_
 10
0.0
 20
0.0
 30
0.0
  0
INSERT
  5
1E7
  8
LAYER_1
  2
E3_NODE_6_
 10
0.0
 20
0.0
 30
0.0
  0
INSERT
  5
21D
  8
LAYER_1
  2
E3_NODE_7_
 10
0.0
 20
0.0
 30
0.0
  0
INSERT
  5
247
  8
LAYER_1
  2
E3_NODE_8_
 10
0.0
 20
0.0
 30
0.0
  0
INSERT
  5
2AD
  8
LAYER_1
  2
E3_NODE_9_
 10
0.0
 20
0.0
 30
0.0
  0
INSERT
  5
2B9
  8
LAYER_1
  2
E3_NODE_10_
 10
0.0
 20
0.0
 30
0.0
  0
INSERT
  5
2C5
  8
LAYER_1
  2
E3_NODE_11_
 10
0.0
 20
0.0
 30
0.0
  0
INSERT
  5
2DD
  8
LAYER_1
  2
E3_NODE_12_
 10
0.0
 20
0.0
 30
0.0
  0
INSERT
  5
307
  8
LAYER_1
  2
E3_NODE_13_
 10
0.0
 20
0.0
 30
0.0
  0
INSERT
  5
361
  8
LAYER_1
  2
E3_NODE_14_
 10
0.0
 20
0.0
 30
0.0
  0
INSERT
  5
36D
  8
LAYER_1
  2
E3_NODE_15_
 10
0.0
 20
0.0
 30
0.0
  0
INSERT
  5
379
  8
LAYER_1
  2
E3_NODE_16_
 10
0.0
 20
0.0
 30
0.0
  0
INSERT
  5
4B1
  8
LAYER_1
  2
E3_NODE_17_
 10
0.0
 20
0.0
 30
0.0
  0
INSERT
  5
4F9
  8
LAYER_1
  2
E3_NODE_18_
 10
0.0
 20
0.0
 30
0.0
  0
INSERT
  5
543
  8
LAYER_1
  2
E3_NODE_19_
 10
0.0
 20
0.0
 30
0.0
  0
INSERT
  5
55F
  8
LAYER_1
  2
E3_NODE_20_
 10
0.0
 20
0.0
 30
0.0
  0
INSERT
  5
57B
  8
LAYER_1
  2
E3_NODE_21_
 10
0.0
 20
0.0
 30
0.0
  0
INSERT
  5
597
  8
LAYER_1
  2
E3_NODE_22_
 10
0.0
 20
0.0
 30
0.0
  0
INSERT
  5
682
  8
LAYER_1
  2
E3_NODE_23_
 10
0.0
 20
0.0
 30
0.0
  0
INSERT
  5
69E
  8
LAYER_1
  2
E3_NODE_24_
 10
0.0
 20
0.0
 30
0.0
  0
INSERT
  5
6BA
  8
LAYER_1
  2
E3_NODE_25_
 10
0.0
 20
0.0
 30
0.0
  0
INSERT
  5
748
  8
LAYER_1
  2
E3_NODE_26_
 10
0.0
 20
0.0
 30
0.0
  0
INSERT
  5
760
  8
LAYER_1
  2
E3_NODE_27_
 10
0.0
 20
0.0
 30
0.0
  0
INSERT
  5
774
  8
LAYER_1
  2
E3_NODE_28_
 10
0.0
 20
0.0
 30
0.0
  0
INSERT
  5
78C
  8
LAYER_1
  2
E3_NODE_29_
 10
0.0
 20
0.0
 30
0.0
  0
INSERT
  5
7A2
  8
LAYER_1
  2
E3_NODE_30_
 10
0.0
 20
0.0
 30
0.0
  0
INSERT
  5
80B
  8
LAYER_1
  2
E3_NODE_31_
 10
0.0
 20
0.0
 30
0.0
  0
ENDSEC
  0
EOF
