  0
SECTION
  2
HEADER
  9
$ACADVER
  1
AC1009
  9
$DWGCODEPAGE
  3
ansi_1252
  9
$INSBASE
 10
0.0
 20
0.0
 30
0.0
  9
$EXTMIN
 10
1.000000000000000E+20
 20
1.000000000000000E+20
 30
1.000000000000000E+20
  9
$EXTMAX
 10
-1.000000000000000E+20
 20
-1.000000000000000E+20
 30
-1.000000000000000E+20
  9
$LIMMIN
 10
0.0
 20
0.0
  9
$LIMMAX
 10
12.0
 20
9.0
  9
$ORTHOMODE
 70
     0
  9
$REGENMODE
 70
     1
  9
$FILLMODE
 70
     1
  9
$QTEXTMODE
 70
     0
  9
$MIRRTEXT
 70
     1
  9
$DRAGMODE
 70
     2
  9
$LTSCALE
 40
1.0
  9
$OSMODE
 70
    37
  9
$ATTMODE
 70
     1
  9
$TEXTSIZE
 40
0.2
  9
$TRACEWID
 40
0.05
  9
$TEXTSTYLE
  7
STANDARD
  9
$CLAYER
  8
0
  9
$CELTYPE
  6
BYLAYER
  9
$CECOLOR
 62
   256
  9
$DIMSCALE
 40
1.0
  9
$DIMASZ
 40
0.18
  9
$DIMEXO
 40
0.0625
  9
$DIMDLI
 40
0.38
  9
$DIMRND
 40
0.0
  9
$DIMDLE
 40
0.0
  9
$DIMEXE
 40
0.18
  9
$DIMTP
 40
0.0
  9
$DIMTM
 40
0.0
  9
$DIMTXT
 40
0.18
  9
$DIMCEN
 40
0.09
  9
$DIMTSZ
 40
0.0
  9
$DIMTOL
 70
     0
  9
$DIMLIM
 70
     0
  9
$DIMTIH
 70
     1
  9
$DIMTOH
 70
     1
  9
$DIMSE1
 70
     0
  9
$DIMSE2
 70
     0
  9
$DIMTAD
 70
     0
  9
$DIMZIN
 70
     0
  9
$DIMBLK
  1

  9
$DIMASO
 70
     1
  9
$DIMSHO
 70
     1
  9
$DIMPOST
  1

  9
$DIMAPOST
  1

  9
$DIMALT
 70
     0
  9
$DIMALTD
 70
     2
  9
$DIMALTF
 40
25.4
  9
$DIMLFAC
 40
1.0
  9
$DIMTOFL
 70
     0
  9
$DIMTVP
 40
0.0
  9
$DIMTIX
 70
     0
  9
$DIMSOXD
 70
     0
  9
$DIMSAH
 70
     0
  9
$DIMBLK1
  1

  9
$DIMBLK2
  1

  9
$DIMSTYLE
  2
STANDARD
  9
$DIMCLRD
 70
     0
  9
$DIMCLRE
 70
     0
  9
$DIMCLRT
 70
     0
  9
$DIMTFAC
 40
1.0
  9
$DIMGAP
 40
0.09
  9
$LUNITS
 70
     2
  9
$LUPREC
 70
     4
  9
$SKETCHINC
 40
0.1
  9
$FILLETRAD
 40
0.5
  9
$AUNITS
 70
     0
  9
$AUPREC
 70
     0
  9
$MENU
  1
.
  9
$ELEVATION
 40
0.0
  9
$PELEVATION
 40
0.0
  9
$THICKNESS
 40
0.0
  9
$LIMCHECK
 70
     0
  9
$CHAMFERA
 40
0.5
  9
$CHAMFERB
 40
0.5
  9
$SKPOLY
 70
     0
  9
$TDCREATE
 40
2456029.440741829
  9
$TDUPDATE
 40
2456029.440741829
  9
$TDINDWG
 40
0.0000000116
  9
$TDUSRTIMER
 40
0.0000000116
  9
$USRTIMER
 70
     1
  9
$ANGBASE
 50
0.0
  9
$ANGDIR
 70
     0
  9
$PDMODE
 70
     0
  9
$PDSIZE
 40
0.0
  9
$PLINEWID
 40
0.0
  9
$COORDS
 70
     1
  9
$SPLFRAME
 70
     0
  9
$SPLINETYPE
 70
     6
  9
$SPLINESEGS
 70
     8
  9
$ATTDIA
 70
     0
  9
$ATTREQ
 70
     1
  9
$HANDLING
 70
     1
  9
$HANDSEED
  5
C6C
  9
$SURFTAB1
 70
     6
  9
$SURFTAB2
 70
     6
  9
$SURFTYPE
 70
     6
  9
$SURFU
 70
     6
  9
$SURFV
 70
     6
  9
$UCSNAME
  2

  9
$UCSORG
 10
0.0
 20
0.0
 30
0.0
  9
$UCSXDIR
 10
1.0
 20
0.0
 30
0.0
  9
$UCSYDIR
 10
0.0
 20
1.0
 30
0.0
  9
$PUCSNAME
  2

  9
$PUCSORG
 10
0.0
 20
0.0
 30
0.0
  9
$PUCSXDIR
 10
1.0
 20
0.0
 30
0.0
  9
$PUCSYDIR
 10
0.0
 20
1.0
 30
0.0
  9
$USERI1
 70
     0
  9
$USERI2
 70
     0
  9
$USERI3
 70
     0
  9
$USERI4
 70
     0
  9
$USERI5
 70
     0
  9
$USERR1
 40
0.0
  9
$USERR2
 40
0.0
  9
$USERR3
 40
0.0
  9
$USERR4
 40
0.0
  9
$USERR5
 40
0.0
  9
$WORLDVIEW
 70
     1
  9
$SHADEDGE
 70
     3
  9
$SHADEDIF
 70
    70
  9
$TILEMODE
 70
     1
  9
$MAXACTVP
 70
    64
  9
$PLIMCHECK
 70
     0
  9
$PEXTMIN
 10
1.000000000000000E+20
 20
1.000000000000000E+20
 30
1.000000000000000E+20
  9
$PEXTMAX
 10
-1.000000000000000E+20
 20
-1.000000000000000E+20
 30
-1.000000000000000E+20
  9
$PLIMMIN
 10
0.0
 20
0.0
  9
$PLIMMAX
 10
12.0
 20
9.0
  9
$UNITMODE
 70
     0
  9
$VISRETAIN
 70
     1
  9
$PLINEGEN
 70
     0
  9
$PSLTSCALE
 70
     1
  0
ENDSEC
  0
SECTION
  2
TABLES
  0
TABLE
  2
VPORT
 70
     1
  0
VPORT
  2
*ACTIVE
 70
     0
 10
0.0
 20
0.0
 11
1.0
 21
1.0
 12
0.0
 22
0.0
 13
0.0
 23
0.0
 14
0.5
 24
0.5
 15
0.5
 25
0.5
 16
-560.2793579101562
 26
-232.0753021240234
 36
120.6288223266602
 17
40.5013427734375
 27
90.0
 37
45.06890106201172
 40
251.657320639172
 41
1.972972972850329
 42
50.0
 43
0.0
 44
0.0
 50
0.0
 51
0.0
 71
     0
 72
   100
 73
     1
 74
     3
 75
     0
 76
     0
 77
     0
 78
     0
  0
ENDTAB
  0
TABLE
  2
LTYPE
 70
     1
  0
LTYPE
  2
CONTINUOUS
 70
     0
  3
Solid line
 72
    65
 73
     0
 40
0.0
  0
ENDTAB
  0
TABLE
  2
LAYER
 70
     2
  0
LAYER
  2
0
 70
     0
 62
     7
  6
CONTINUOUS
  0
LAYER
  2
LAYER_1
 70
     0
 62
     7
  6
CONTINUOUS
  0
ENDTAB
  0
TABLE
  2
STYLE
 70
     1
  0
STYLE
  2
STANDARD
 70
     0
 40
0.0
 41
1.0
 50
0.0
 71
     0
 42
0.2
  3
txt
  4

  0
ENDTAB
  0
TABLE
  2
VIEW
 70
     0
  0
ENDTAB
  0
TABLE
  2
UCS
 70
     0
  0
ENDTAB
  0
TABLE
  2
APPID
 70
     1
  0
APPID
  2
ACAD
 70
     0
  0
ENDTAB
  0
TABLE
  2
DIMSTYLE
 70
     1
  0
DIMSTYLE
  2
STANDARD
 70
     0
  3

  4

  5

  6

  7

 40
1.0
 41
0.18
 42
0.0625
 43
0.38
 44
0.18
 45
0.0
 46
0.0
 47
0.0
 48
0.0
140
0.18
141
0.09
142
0.0
143
25.4
144
1.0
145
0.0
146
1.0
147
0.09
 71
     0
 72
     0
 73
     1
 74
     1
 75
     0
 76
     0
 77
     0
 78
     0
170
     0
171
     2
172
     0
173
     0
174
     0
175
     0
176
     0
177
     0
178
     0
  0
ENDTAB
  0
ENDSEC
  0
SECTION
  2
BLOCKS
  0
BLOCK
  8
0
  2
$MODEL_SPACE
 70
     0
 10
0.0
 20
0.0
 30
0.0
  3
$MODEL_SPACE
  1

  0
ENDBLK
  5
21
  8
0
  0
BLOCK
 67
     1
  8
0
  2
$PAPER_SPACE
 70
     0
 10
0.0
 20
0.0
 30
0.0
  3
$PAPER_SPACE
  1

  0
ENDBLK
  5
1D
 67
     1
  8
0
  0
BLOCK
  8
0
  2
38
 70
     0
 10
0.0
 20
0.0
 30
0.0
  3
38
  1

  0
POLYLINE
  5
3C
  8
0
 62
   253
 66
     1
 10
0.0
 20
0.0
 30
0.0
 70
    64
 71
   256
 72
   484
  0
VERTEX
  5
3D
  8
0
 10
0.0000014225735185
 20
212.4974517822266
 30
31.70000076293945
 70
   192
  0
VERTEX
  5
3E
  8
0
 10
-16.24382400512695
 20
208.1479187011719
 30
31.70000076293945
 70
   192
  0
VERTEX
  5
3F
  8
0
 10
-8.587102890014648
 20
217.5178375244141
 30
29.84112930297852
 70
   192
  0
VERTEX
  5
40
  8
0
 10
-16.7240047454834
 20
214.6464996337891
 30
29.84112930297852
 70
   192
  0
VERTEX
  5
41
  8
0
 10
0.0000000000000599
 20
218.5
 30
29.84112930297852
 70
   192
  0
VERTEX
  5
42
  8
0
 10
-28.14460754394531
 20
196.2531433105469
 30
31.70000076293945
 70
   192
  0
VERTEX
  5
43
  8
0
 10
-24.01314353942871
 20
210.0516967773438
 30
29.84112930297852
 70
   192
  0
VERTEX
  5
44
  8
0
 10
-34.67649078369141
 20
196.6698150634766
 30
29.84112930297852
 70
   192
  0
VERTEX
  5
45
  8
0
 10
-30.0994815826416
 20
203.9602661132812
 30
29.84112930297852
 70
   192
  0
VERTEX
  5
46
  8
0
 10
-32.5
 20
180.0
 30
31.70000076293945
 70
   192
  0
VERTEX
  5
47
  8
0
 10
-37.51999282836914
 20
188.5459899902344
 30
29.84112930297852
 70
   192
  0
VERTEX
  5
48
  8
0
 10
-38.5
 20
180.0
 30
29.84112930297852
 70
   192
  0
VERTEX
  5
49
  8
0
 10
-28.15271759033203
 20
163.7641143798828
 30
31.70000076293945
 70
   192
  0
VERTEX
  5
4A
  8
0
 10
-37.5531120300293
 20
171.4234161376953
 30
29.84112930297852
 70
   192
  0
VERTEX
  5
4B
  8
0
 10
-34.70046615600586
 20
163.28125
 30
29.84112930297852
 70
   192
  0
VERTEX
  5
4C
  8
0
 10
-16.26102638244629
 20
151.8592681884766
 30
31.70000076293945
 70
   192
  0
VERTEX
  5
4D
  8
0
 10
-30.11021614074707
 20
155.9785308837891
 30
29.84112930297852
 70
   192
  0
VERTEX
  5
4E
  8
0
 10
-16.70058822631836
 20
145.2972259521484
 30
29.84112930297852
 70
   192
  0
VERTEX
  5
4F
  8
0
 10
-24.00985336303711
 20
149.8788299560547
 30
29.84112930297852
 70
   192
  0
VERTEX
  5
50
  8
0
 10
0.0000014225735185
 20
147.5025482177734
 30
31.70000076293945
 70
   192
  0
VERTEX
  5
51
  8
0
 10
-8.559514045715332
 20
142.4708862304688
 30
29.84112930297852
 70
   192
  0
VERTEX
  5
52
  8
0
 10
0.0000000000000801
 20
141.5
 30
29.84112930297852
 70
   192
  0
VERTEX
  5
53
  8
0
 10
8.587102890014648
 20
142.4821624755859
 30
29.84112930297852
 70
   192
  0
VERTEX
  5
54
  8
0
 10
12.4050178527832
 20
149.9630126953125
 30
31.70000076293945
 70
   192
  0
VERTEX
  5
55
  8
0
 10
16.7240047454834
 20
145.3535003662109
 30
29.84112930297852
 70
   192
  0
VERTEX
  5
56
  8
0
 10
24.01314353942871
 20
149.9483032226562
 30
29.84112930297852
 70
   192
  0
VERTEX
  5
57
  8
0
 10
22.96561241149902
 20
157.0049591064453
 30
31.70000076293945
 70
   192
  0
VERTEX
  5
58
  8
0
 10
30.0994815826416
 20
156.0397338867188
 30
29.84112930297852
 70
   192
  0
VERTEX
  5
59
  8
0
 10
30.01599884033203
 20
167.54052734375
 30
31.70000076293945
 70
   192
  0
VERTEX
  5
5A
  8
0
 10
34.67649078369141
 20
163.3301849365234
 30
29.84112930297852
 70
   192
  0
VERTEX
  5
5B
  8
0
 10
32.49664688110352
 20
180.0
 30
31.70000076293945
 70
   192
  0
VERTEX
  5
5C
  8
0
 10
37.51999282836914
 20
171.4540100097656
 30
29.84112930297852
 70
   192
  0
VERTEX
  5
5D
  8
0
 10
38.5
 20
180.0
 30
29.84112930297852
 70
   192
  0
VERTEX
  5
5E
  8
0
 10
-4.663398265838623
 20
141.7886199951172
 30
10.69999980926514
 70
   192
  0
VERTEX
  5
5F
  8
0
 10
-4.662993907928467
 20
141.7851257324219
 30
18.3464469909668
 70
   192
  0
VERTEX
  5
60
  8
0
 10
4.626134395599365
 20
141.7806549072266
 30
18.3464469909668
 70
   192
  0
VERTEX
  5
61
  8
0
 10
-13.64950275421143
 20
144.0004272460938
 30
18.3464469909668
 70
   192
  0
VERTEX
  5
62
  8
0
 10
-13.6677131652832
 20
144.0306243896484
 30
10.69999980926514
 70
   192
  0
VERTEX
  5
63
  8
0
 10
-21.87337303161621
 20
148.3563537597656
 30
10.69999980926514
 70
   192
  0
VERTEX
  5
64
  8
0
 10
-21.88247680664062
 20
148.3244781494141
 30
18.3464469909668
 70
   192
  0
VERTEX
  5
65
  8
0
 10
-28.81817054748535
 20
154.5158538818359
 30
10.69999980926514
 70
   192
  0
VERTEX
  5
66
  8
0
 10
-28.82469749450684
 20
154.4788818359375
 30
18.3464469909668
 70
   192
  0
VERTEX
  5
67
  8
0
 10
-34.0987663269043
 20
162.1301879882812
 30
18.3464469909668
 70
   192
  0
VERTEX
  5
68
  8
0
 10
-34.0818977355957
 20
162.1484527587891
 30
10.69999980926514
 70
   192
  0
VERTEX
  5
69
  8
0
 10
-37.36684417724609
 20
170.8119812011719
 30
10.69999980926514
 70
   192
  0
VERTEX
  5
6A
  8
0
 10
-37.38277053833008
 20
170.7919616699219
 30
18.3464469909668
 70
   192
  0
VERTEX
  5
6B
  8
0
 10
-38.5
 20
180.0
 30
10.69999980926514
 70
   192
  0
VERTEX
  5
6C
  8
0
 10
-38.5
 20
180.0
 30
18.3464469909668
 70
   192
  0
VERTEX
  5
6D
  8
0
 10
4.622393608093262
 20
141.7809600830078
 30
10.69999980926514
 70
   192
  0
VERTEX
  5
6E
  8
0
 10
13.63513278961182
 20
143.996337890625
 30
18.3464469909668
 70
   192
  0
VERTEX
  5
6F
  8
0
 10
13.64439964294434
 20
143.9939575195312
 30
10.69999980926514
 70
   192
  0
VERTEX
  5
70
  8
0
 10
21.87551498413086
 20
148.3183746337891
 30
18.3464469909668
 70
   192
  0
VERTEX
  5
71
  8
0
 10
21.88438034057617
 20
148.3010101318359
 30
10.69999980926514
 70
   192
  0
VERTEX
  5
72
  8
0
 10
28.83066940307617
 20
154.455078125
 30
10.69999980926514
 70
   192
  0
VERTEX
  5
73
  8
0
 10
28.80635643005371
 20
154.4579925537109
 30
18.3464469909668
 70
   192
  0
VERTEX
  5
74
  8
0
 10
34.07816314697266
 20
162.0910186767578
 30
18.3464469909668
 70
   192
  0
VERTEX
  5
75
  8
0
 10
34.10219955444336
 20
162.092529296875
 30
10.69999980926514
 70
   192
  0
VERTEX
  5
76
  8
0
 10
37.37719345092773
 20
170.7723693847656
 30
18.3464469909668
 70
   192
  0
VERTEX
  5
77
  8
0
 10
37.39815521240234
 20
170.7728576660156
 30
10.69999980926514
 70
   192
  0
VERTEX
  5
78
  8
0
 10
38.5
 20
180.0
 30
18.3464469909668
 70
   192
  0
VERTEX
  5
79
  8
0
 10
38.5
 20
180.0
 30
10.69999980926514
 70
   192
  0
VERTEX
  5
7A
  8
0
 10
4.662993907928467
 20
141.7851257324219
 30
18.8464469909668
 70
   192
  0
VERTEX
  5
7B
  8
0
 10
-4.626134395599365
 20
141.7806549072266
 30
18.8464469909668
 70
   192
  0
VERTEX
  5
7C
  8
0
 10
-13.63513278961182
 20
143.996337890625
 30
18.8464469909668
 70
   192
  0
VERTEX
  5
7D
  8
0
 10
-21.87551498413086
 20
148.3183746337891
 30
18.8464469909668
 70
   192
  0
VERTEX
  5
7E
  8
0
 10
-28.80635643005371
 20
154.4579925537109
 30
18.8464469909668
 70
   192
  0
VERTEX
  5
7F
  8
0
 10
-34.07816314697266
 20
162.0910186767578
 30
18.8464469909668
 70
   192
  0
VERTEX
  5
80
  8
0
 10
-37.37719345092773
 20
170.7723693847656
 30
18.8464469909668
 70
   192
  0
VERTEX
  5
81
  8
0
 10
-38.5
 20
180.0
 30
18.8464469909668
 70
   192
  0
VERTEX
  5
82
  8
0
 10
13.64950275421143
 20
144.0004272460938
 30
18.8464469909668
 70
   192
  0
VERTEX
  5
83
  8
0
 10
21.88247680664062
 20
148.3244781494141
 30
18.8464469909668
 70
   192
  0
VERTEX
  5
84
  8
0
 10
28.82469749450684
 20
154.4788818359375
 30
18.8464469909668
 70
   192
  0
VERTEX
  5
85
  8
0
 10
34.0987663269043
 20
162.1301879882812
 30
18.8464469909668
 70
   192
  0
VERTEX
  5
86
  8
0
 10
37.38277053833008
 20
170.7919616699219
 30
18.8464469909668
 70
   192
  0
VERTEX
  5
87
  8
0
 10
38.5
 20
180.0
 30
18.8464469909668
 70
   192
  0
VERTEX
  5
88
  8
0
 10
0.0000000000000142
 20
142.0500030517578
 30
18.8464469909668
 70
   192
  0
VERTEX
  5
89
  8
0
 10
0.0000000000000071
 20
142.0500030517578
 30
18.3464469909668
 70
   192
  0
VERTEX
  5
8A
  8
0
 10
-3.487094640731812
 20
142.2117767333984
 30
18.3464469909668
 70
   192
  0
VERTEX
  5
8B
  8
0
 10
-6.974189281463623
 20
142.6970825195312
 30
18.3464469909668
 70
   192
  0
VERTEX
  5
8C
  8
0
 10
-3.525338411331177
 20
142.2164154052734
 30
18.8464469909668
 70
   192
  0
VERTEX
  5
8D
  8
0
 10
-10.37204933166504
 20
143.4951171875
 30
18.3464469909668
 70
   192
  0
VERTEX
  5
8E
  8
0
 10
-6.982687950134277
 20
142.6981201171875
 30
18.8464469909668
 70
   192
  0
VERTEX
  5
8F
  8
0
 10
-10.39840412139893
 20
143.5026245117188
 30
18.8464469909668
 70
   192
  0
VERTEX
  5
90
  8
0
 10
-13.69342136383057
 20
144.607421875
 30
18.3464469909668
 70
   192
  0
VERTEX
  5
91
  8
0
 10
-16.89484596252441
 20
146.0202331542969
 30
18.3464469909668
 70
   192
  0
VERTEX
  5
92
  8
0
 10
-13.70471668243408
 20
144.6106414794922
 30
18.8464469909668
 70
   192
  0
VERTEX
  5
93
  8
0
 10
-19.96879577636719
 20
147.7314147949219
 30
18.3464469909668
 70
   192
  0
VERTEX
  5
94
  8
0
 10
-16.93032455444336
 20
146.0389099121094
 30
18.8464469909668
 70
   192
  0
VERTEX
  5
95
  8
0
 10
-19.99137306213379
 20
147.7433013916016
 30
18.8464469909668
 70
   192
  0
VERTEX
  5
96
  8
0
 10
-22.86743354797363
 20
149.7130737304688
 30
18.3464469909668
 70
   192
  0
VERTEX
  5
97
  8
0
 10
-25.55850791931152
 20
151.9482269287109
 30
18.3464469909668
 70
   192
  0
VERTEX
  5
98
  8
0
 10
-22.88749885559082
 20
149.7306823730469
 30
18.8464469909668
 70
   192
  0
VERTEX
  5
99
  8
0
 10
-28.03650093078613
 20
154.4241027832031
 30
18.3464469909668
 70
   192
  0
VERTEX
  5
9A
  8
0
 10
-25.57589721679688
 20
151.9635009765625
 30
18.8464469909668
 70
   192
  0
VERTEX
  5
9B
  8
0
 10
-28.05177307128906
 20
154.4414978027344
 30
18.8464469909668
 70
   192
  0
VERTEX
  5
9C
  8
0
 10
-30.26931190490723
 20
157.1125030517578
 30
18.3464469909668
 70
   192
  0
VERTEX
  5
9D
  8
0
 10
-32.25670623779297
 20
160.0086212158203
 30
18.3464469909668
 70
   192
  0
VERTEX
  5
9E
  8
0
 10
-30.28693008422852
 20
157.132568359375
 30
18.8464469909668
 70
   192
  0
VERTEX
  5
9F
  8
0
 10
-33.96109771728516
 20
163.0696716308594
 30
18.3464469909668
 70
   192
  0
VERTEX
  5
A0
  8
0
 10
-32.26858520507812
 20
160.0312042236328
 30
18.8464469909668
 70
   192
  0
VERTEX
  5
A1
  8
0
 10
-33.97976303100586
 20
163.1051483154297
 30
18.8464469909668
 70
   192
  0
VERTEX
  5
A2
  8
0
 10
-35.38935852050781
 20
166.2952880859375
 30
18.3464469909668
 70
   192
  0
VERTEX
  5
A3
  8
0
 10
-36.49737548828125
 20
169.6015930175781
 30
18.3464469909668
 70
   192
  0
VERTEX
  5
A4
  8
0
 10
-35.39257431030273
 20
166.3065795898438
 30
18.8464469909668
 70
   192
  0
VERTEX
  5
A5
  8
0
 10
-37.3018798828125
 20
173.0173187255859
 30
18.3464469909668
 70
   192
  0
VERTEX
  5
A6
  8
0
 10
-36.50487518310547
 20
169.6279449462891
 30
18.8464469909668
 70
   192
  0
VERTEX
  5
A7
  8
0
 10
-37.78358840942383
 20
176.4746551513672
 30
18.8464469909668
 70
   192
  0
VERTEX
  5
A8
  8
0
 10
-37.3018798828125
 20
173.0173187255859
 30
18.8464469909668
 70
   192
  0
VERTEX
  5
A9
  8
0
 10
-37.78358840942383
 20
176.4746551513672
 30
18.3464469909668
 70
   192
  0
VERTEX
  5
AA
  8
0
 10
-37.95000076293945
 20
180.0
 30
18.8464469909668
 70
   192
  0
VERTEX
  5
AB
  8
0
 10
-37.95000076293945
 20
180.0
 30
18.3464469909668
 70
   192
  0
VERTEX
  5
AC
  8
0
 10
3.487094640731812
 20
142.2117767333984
 30
18.8464469909668
 70
   192
  0
VERTEX
  5
AD
  8
0
 10
6.974189281463623
 20
142.6970825195312
 30
18.8464469909668
 70
   192
  0
VERTEX
  5
AE
  8
0
 10
3.525338411331177
 20
142.2164154052734
 30
18.3464469909668
 70
   192
  0
VERTEX
  5
AF
  8
0
 10
6.982687950134277
 20
142.6981201171875
 30
18.3464469909668
 70
   192
  0
VERTEX
  5
B0
  8
0
 10
10.37204933166504
 20
143.4951171875
 30
18.8464469909668
 70
   192
  0
VERTEX
  5
B1
  8
0
 10
13.69342136383057
 20
144.607421875
 30
18.8464469909668
 70
   192
  0
VERTEX
  5
B2
  8
0
 10
10.39840412139893
 20
143.5026245117188
 30
18.3464469909668
 70
   192
  0
VERTEX
  5
B3
  8
0
 10
16.89484596252441
 20
146.0202331542969
 30
18.8464469909668
 70
   192
  0
VERTEX
  5
B4
  8
0
 10
13.70471668243408
 20
144.6106414794922
 30
18.3464469909668
 70
   192
  0
VERTEX
  5
B5
  8
0
 10
16.93032455444336
 20
146.0389099121094
 30
18.3464469909668
 70
   192
  0
VERTEX
  5
B6
  8
0
 10
19.96879577636719
 20
147.7314147949219
 30
18.8464469909668
 70
   192
  0
VERTEX
  5
B7
  8
0
 10
22.86743354797363
 20
149.7130737304688
 30
18.8464469909668
 70
   192
  0
VERTEX
  5
B8
  8
0
 10
19.99137306213379
 20
147.7433013916016
 30
18.3464469909668
 70
   192
  0
VERTEX
  5
B9
  8
0
 10
25.55850791931152
 20
151.9482269287109
 30
18.8464469909668
 70
   192
  0
VERTEX
  5
BA
  8
0
 10
22.88749885559082
 20
149.7306823730469
 30
18.3464469909668
 70
   192
  0
VERTEX
  5
BB
  8
0
 10
25.57589721679688
 20
151.9635009765625
 30
18.3464469909668
 70
   192
  0
VERTEX
  5
BC
  8
0
 10
28.03650093078613
 20
154.4241027832031
 30
18.8464469909668
 70
   192
  0
VERTEX
  5
BD
  8
0
 10
30.26931190490723
 20
157.1125030517578
 30
18.8464469909668
 70
   192
  0
VERTEX
  5
BE
  8
0
 10
28.05177307128906
 20
154.4414978027344
 30
18.3464469909668
 70
   192
  0
VERTEX
  5
BF
  8
0
 10
32.25670623779297
 20
160.0086212158203
 30
18.8464469909668
 70
   192
  0
VERTEX
  5
C0
  8
0
 10
30.28693008422852
 20
157.132568359375
 30
18.3464469909668
 70
   192
  0
VERTEX
  5
C1
  8
0
 10
32.26858520507812
 20
160.0312042236328
 30
18.3464469909668
 70
   192
  0
VERTEX
  5
C2
  8
0
 10
33.96109771728516
 20
163.0696716308594
 30
18.8464469909668
 70
   192
  0
VERTEX
  5
C3
  8
0
 10
35.38935852050781
 20
166.2952880859375
 30
18.8464469909668
 70
   192
  0
VERTEX
  5
C4
  8
0
 10
33.97976303100586
 20
163.1051483154297
 30
18.3464469909668
 70
   192
  0
VERTEX
  5
C5
  8
0
 10
36.49737548828125
 20
169.6015930175781
 30
18.8464469909668
 70
   192
  0
VERTEX
  5
C6
  8
0
 10
35.39257431030273
 20
166.3065795898438
 30
18.3464469909668
 70
   192
  0
VERTEX
  5
C7
  8
0
 10
36.50487518310547
 20
169.6279449462891
 30
18.3464469909668
 70
   192
  0
VERTEX
  5
C8
  8
0
 10
37.3018798828125
 20
173.0173187255859
 30
18.8464469909668
 70
   192
  0
VERTEX
  5
C9
  8
0
 10
37.3018798828125
 20
173.0173187255859
 30
18.3464469909668
 70
   192
  0
VERTEX
  5
CA
  8
0
 10
37.78358840942383
 20
176.4746551513672
 30
18.3464469909668
 70
   192
  0
VERTEX
  5
CB
  8
0
 10
37.78358840942383
 20
176.4746551513672
 30
18.8464469909668
 70
   192
  0
VERTEX
  5
CC
  8
0
 10
37.95000076293945
 20
180.0
 30
18.3464469909668
 70
   192
  0
VERTEX
  5
CD
  8
0
 10
37.95000076293945
 20
180.0
 30
18.8464469909668
 70
   192
  0
VERTEX
  5
CE
  8
0
 10
12.45157814025879
 20
210.018310546875
 30
31.70000076293945
 70
   192
  0
VERTEX
  5
CF
  8
0
 10
30.03249549865723
 20
192.4183349609375
 30
31.70000076293945
 70
   192
  0
VERTEX
  5
D0
  8
0
 10
22.98735618591309
 20
202.9738311767578
 30
31.70000076293945
 70
   192
  0
VERTEX
  5
D1
  8
0
 10
21.88438034057617
 20
211.6989898681641
 30
18.3464469909668
 70
   192
  0
VERTEX
  5
D2
  8
0
 10
28.83066940307617
 20
205.544921875
 30
18.3464469909668
 70
   192
  0
VERTEX
  5
D3
  8
0
 10
25.56739234924316
 20
208.0036010742188
 30
18.3464469909668
 70
   192
  0
VERTEX
  5
D4
  8
0
 10
35.37279510498047
 20
193.6800231933594
 30
18.3464469909668
 70
   192
  0
VERTEX
  5
D5
  8
0
 10
34.10219955444336
 20
197.907470703125
 30
18.3464469909668
 70
   192
  0
VERTEX
  5
D6
  8
0
 10
37.39815521240234
 20
189.2271423339844
 30
18.3464469909668
 70
   192
  0
VERTEX
  5
D7
  8
0
 10
32.25769805908203
 20
199.9405517578125
 30
18.3464469909668
 70
   192
  0
VERTEX
  5
D8
  8
0
 10
30.28091621398926
 20
202.8304901123047
 30
18.3464469909668
 70
   192
  0
VERTEX
  5
D9
  8
0
 10
16.93536949157715
 20
213.9297943115234
 30
18.3464469909668
 70
   192
  0
VERTEX
  5
DA
  8
0
 10
19.98506164550781
 20
212.2255706787109
 30
18.3464469909668
 70
   192
  0
VERTEX
  5
DB
  8
0
 10
4.622393608093262
 20
218.2190399169922
 30
18.3464469909668
 70
   192
  0
VERTEX
  5
DC
  8
0
 10
13.64439964294434
 20
216.0060424804688
 30
18.3464469909668
 70
   192
  0
VERTEX
  5
DD
  8
0
 10
10.41230964660645
 20
216.4764099121094
 30
18.3464469909668
 70
   192
  0
VERTEX
  5
DE
  8
0
 10
-0.0000000000000166
 20
217.9499969482422
 30
18.3464469909668
 70
   192
  0
VERTEX
  5
DF
  8
0
 10
-4.663398265838623
 20
218.2113800048828
 30
18.3464469909668
 70
   192
  0
VERTEX
  5
E0
  8
0
 10
-10.3695707321167
 20
216.5038452148438
 30
18.3464469909668
 70
   192
  0
VERTEX
  5
E1
  8
0
 10
-6.966861724853516
 20
217.3007354736328
 30
18.3464469909668
 70
   192
  0
VERTEX
  5
E2
  8
0
 10
-16.91060256958008
 20
213.9876098632812
 30
18.3464469909668
 70
   192
  0
VERTEX
  5
E3
  8
0
 10
-21.87337303161621
 20
211.6436462402344
 30
18.3464469909668
 70
   192
  0
VERTEX
  5
E4
  8
0
 10
-13.6677131652832
 20
215.9693756103516
 30
18.3464469909668
 70
   192
  0
VERTEX
  5
E5
  8
0
 10
-28.81817054748535
 20
205.4841461181641
 30
18.3464469909668
 70
   192
  0
VERTEX
  5
E6
  8
0
 10
-30.29532051086426
 20
202.8851318359375
 30
18.3464469909668
 70
   192
  0
VERTEX
  5
E7
  8
0
 10
-34.0818977355957
 20
197.8515472412109
 30
18.3464469909668
 70
   192
  0
VERTEX
  5
E8
  8
0
 10
-37.36684417724609
 20
189.1880187988281
 30
18.3464469909668
 70
   192
  0
VERTEX
  5
E9
  8
0
 10
-35.40711212158203
 20
193.7139892578125
 30
18.3464469909668
 70
   192
  0
VERTEX
  5
EA
  8
0
 10
-25.57520866394043
 20
208.0629730224609
 30
18.3464469909668
 70
   192
  0
VERTEX
  5
EB
  8
0
 10
-22.87769889831543
 20
210.3033752441406
 30
18.3464469909668
 70
   192
  0
VERTEX
  5
EC
  8
0
 10
37.28893661499023
 20
186.9638824462891
 30
18.3464469909668
 70
   192
  0
VERTEX
  5
ED
  8
0
 10
37.77635192871094
 20
183.5129089355469
 30
18.3464469909668
 70
   192
  0
VERTEX
  5
EE
  8
0
 10
-37.79801177978516
 20
183.5189056396484
 30
18.3464469909668
 70
   192
  0
VERTEX
  5
EF
  8
0
 10
-36.51662826538086
 20
190.4020385742188
 30
18.3464469909668
 70
   192
  0
VERTEX
  5
F0
  8
0
 10
-37.32444000244141
 20
186.9751586914062
 30
18.3464469909668
 70
   192
  0
VERTEX
  5
F1
  8
0
 10
-32.28287887573242
 20
199.9855651855469
 30
18.3464469909668
 70
   192
  0
VERTEX
  5
F2
  8
0
 10
-33.98368835449219
 20
196.9308624267578
 30
18.3464469909668
 70
   192
  0
VERTEX
  5
F3
  8
0
 10
-28.05996131896973
 20
205.5796661376953
 30
18.3464469909668
 70
   192
  0
VERTEX
  5
F4
  8
0
 10
-19.98041725158691
 20
212.2828674316406
 30
18.3464469909668
 70
   192
  0
VERTEX
  5
F5
  8
0
 10
-13.70378684997559
 20
215.3952789306641
 30
18.3464469909668
 70
   192
  0
VERTEX
  5
F6
  8
0
 10
-3.484650135040283
 20
217.7883758544922
 30
18.3464469909668
 70
   192
  0
VERTEX
  5
F7
  8
0
 10
6.98509407043457
 20
217.2943267822266
 30
18.3464469909668
 70
   192
  0
VERTEX
  5
F8
  8
0
 10
3.525243759155273
 20
217.7814636230469
 30
18.3464469909668
 70
   192
  0
VERTEX
  5
F9
  8
0
 10
13.72265338897705
 20
215.3590545654297
 30
18.3464469909668
 70
   192
  0
VERTEX
  5
FA
  8
0
 10
22.87865257263184
 20
210.2373962402344
 30
18.3464469909668
 70
   192
  0
VERTEX
  5
FB
  8
0
 10
28.04502105712891
 20
205.5225830078125
 30
18.3464469909668
 70
   192
  0
VERTEX
  5
FC
  8
0
 10
33.9619140625
 20
196.8790893554688
 30
18.3464469909668
 70
   192
  0
VERTEX
  5
FD
  8
0
 10
36.48775100708008
 20
190.3529205322266
 30
18.3464469909668
 70
   192
  0
VERTEX
  5
FE
  8
0
 10
-37.78358840942383
 20
183.5253448486328
 30
18.8464469909668
 70
   192
  0
VERTEX
  5
FF
  8
0
 10
-35.38935852050781
 20
193.7047119140625
 30
18.8464469909668
 70
   192
  0
VERTEX
  5
100
  8
0
 10
-36.49737548828125
 20
190.3984069824219
 30
18.8464469909668
 70
   192
  0
VERTEX
  5
101
  8
0
 10
-37.3018798828125
 20
186.9826812744141
 30
18.8464469909668
 70
   192
  0
VERTEX
  5
102
  8
0
 10
-30.26931190490723
 20
202.8874969482422
 30
18.8464469909668
 70
   192
  0
VERTEX
  5
103
  8
0
 10
-33.96109771728516
 20
196.9303283691406
 30
18.8464469909668
 70
   192
  0
VERTEX
  5
104
  8
0
 10
-32.25670623779297
 20
199.9913787841797
 30
18.8464469909668
 70
   192
  0
VERTEX
  5
105
  8
0
 10
-19.96879577636719
 20
212.2685852050781
 30
18.8464469909668
 70
   192
  0
VERTEX
  5
106
  8
0
 10
-22.86743354797363
 20
210.2869262695312
 30
18.8464469909668
 70
   192
  0
VERTEX
  5
107
  8
0
 10
-25.55850791931152
 20
208.0517730712891
 30
18.8464469909668
 70
   192
  0
VERTEX
  5
108
  8
0
 10
-10.37204933166504
 20
216.5048828125
 30
18.8464469909668
 70
   192
  0
VERTEX
  5
109
  8
0
 10
-16.89484596252441
 20
213.9797668457031
 30
18.8464469909668
 70
   192
  0
VERTEX
  5
10A
  8
0
 10
-13.69342136383057
 20
215.392578125
 30
18.8464469909668
 70
   192
  0
VERTEX
  5
10B
  8
0
 10
-0.0000000000000107
 20
217.9499969482422
 30
18.8464469909668
 70
   192
  0
VERTEX
  5
10C
  8
0
 10
-3.487094640731812
 20
217.7882232666016
 30
18.8464469909668
 70
   192
  0
VERTEX
  5
10D
  8
0
 10
-6.974189281463623
 20
217.3029174804688
 30
18.8464469909668
 70
   192
  0
VERTEX
  5
10E
  8
0
 10
10.39840412139893
 20
216.4973754882812
 30
18.8464469909668
 70
   192
  0
VERTEX
  5
10F
  8
0
 10
6.982687950134277
 20
217.3018798828125
 30
18.8464469909668
 70
   192
  0
VERTEX
  5
110
  8
0
 10
3.525338411331177
 20
217.7835845947266
 30
18.8464469909668
 70
   192
  0
VERTEX
  5
111
  8
0
 10
19.99137306213379
 20
212.2566986083984
 30
18.8464469909668
 70
   192
  0
VERTEX
  5
112
  8
0
 10
16.93032455444336
 20
213.9610900878906
 30
18.8464469909668
 70
   192
  0
VERTEX
  5
113
  8
0
 10
13.70471668243408
 20
215.3893585205078
 30
18.8464469909668
 70
   192
  0
VERTEX
  5
114
  8
0
 10
25.57589721679688
 20
208.0364990234375
 30
18.8464469909668
 70
   192
  0
VERTEX
  5
115
  8
0
 10
22.88749885559082
 20
210.2693176269531
 30
18.8464469909668
 70
   192
  0
VERTEX
  5
116
  8
0
 10
28.05177307128906
 20
205.5585021972656
 30
18.8464469909668
 70
   192
  0
VERTEX
  5
117
  8
0
 10
30.28693008422852
 20
202.867431640625
 30
18.8464469909668
 70
   192
  0
VERTEX
  5
118
  8
0
 10
32.26858520507812
 20
199.9687957763672
 30
18.8464469909668
 70
   192
  0
VERTEX
  5
119
  8
0
 10
33.97976303100586
 20
196.8948516845703
 30
18.8464469909668
 70
   192
  0
VERTEX
  5
11A
  8
0
 10
35.39257431030273
 20
193.6934204101562
 30
18.8464469909668
 70
   192
  0
VERTEX
  5
11B
  8
0
 10
36.50487518310547
 20
190.3720550537109
 30
18.8464469909668
 70
   192
  0
VERTEX
  5
11C
  8
0
 10
37.78358840942383
 20
183.5253448486328
 30
18.8464469909668
 70
   192
  0
VERTEX
  5
11D
  8
0
 10
37.3018798828125
 20
186.9826812744141
 30
18.8464469909668
 70
   192
  0
VERTEX
  5
11E
  8
0
 10
-28.03650093078613
 20
205.5758972167969
 30
18.8464469909668
 70
   192
  0
VERTEX
  5
11F
  8
0
 10
-21.88438034057617
 20
211.6989898681641
 30
18.8464469909668
 70
   192
  0
VERTEX
  5
120
  8
0
 10
-28.83066940307617
 20
205.544921875
 30
18.8464469909668
 70
   192
  0
VERTEX
  5
121
  8
0
 10
-34.10219955444336
 20
197.907470703125
 30
18.8464469909668
 70
   192
  0
VERTEX
  5
122
  8
0
 10
-37.39815521240234
 20
189.2271423339844
 30
18.8464469909668
 70
   192
  0
VERTEX
  5
123
  8
0
 10
-4.622393608093262
 20
218.2190399169922
 30
18.8464469909668
 70
   192
  0
VERTEX
  5
124
  8
0
 10
-13.64439964294434
 20
216.0060424804688
 30
18.8464469909668
 70
   192
  0
VERTEX
  5
125
  8
0
 10
4.663398265838623
 20
218.2113800048828
 30
18.8464469909668
 70
   192
  0
VERTEX
  5
126
  8
0
 10
21.87337303161621
 20
211.6436462402344
 30
18.8464469909668
 70
   192
  0
VERTEX
  5
127
  8
0
 10
13.6677131652832
 20
215.9693756103516
 30
18.8464469909668
 70
   192
  0
VERTEX
  5
128
  8
0
 10
28.81817054748535
 20
205.4841461181641
 30
18.8464469909668
 70
   192
  0
VERTEX
  5
129
  8
0
 10
34.0818977355957
 20
197.8515472412109
 30
18.8464469909668
 70
   192
  0
VERTEX
  5
12A
  8
0
 10
37.36684417724609
 20
189.1880187988281
 30
18.8464469909668
 70
   192
  0
VERTEX
  5
12B
  8
0
 10
16.21741104125977
 20
214.9218597412109
 30
29.84112930297852
 70
   192
  0
VERTEX
  5
12C
  8
0
 10
23.84734344482422
 20
210.2226257324219
 30
29.84112930297852
 70
   192
  0
VERTEX
  5
12D
  8
0
 10
8.045841217041016
 20
217.6554870605469
 30
29.84112930297852
 70
   192
  0
VERTEX
  5
12E
  8
0
 10
30.25604438781738
 20
203.7964782714844
 30
29.84112930297852
 70
   192
  0
VERTEX
  5
12F
  8
0
 10
34.93042755126953
 20
196.1694793701172
 30
29.84112930297852
 70
   192
  0
VERTEX
  5
130
  8
0
 10
37.64970779418945
 20
188.0194702148438
 30
29.84112930297852
 70
   192
  0
VERTEX
  5
131
  8
0
 10
-37.39815521240234
 20
189.2271423339844
 30
10.69999980926514
 70
   192
  0
VERTEX
  5
132
  8
0
 10
-13.64439964294434
 20
216.0060424804688
 30
10.69999980926514
 70
   192
  0
VERTEX
  5
133
  8
0
 10
-21.88438034057617
 20
211.6989898681641
 30
10.69999980926514
 70
   192
  0
VERTEX
  5
134
  8
0
 10
-34.10219955444336
 20
197.907470703125
 30
10.69999980926514
 70
   192
  0
VERTEX
  5
135
  8
0
 10
-28.83066940307617
 20
205.544921875
 30
10.69999980926514
 70
   192
  0
VERTEX
  5
136
  8
0
 10
4.663398265838623
 20
218.2113800048828
 30
10.69999980926514
 70
   192
  0
VERTEX
  5
137
  8
0
 10
13.6677131652832
 20
215.9693756103516
 30
10.69999980926514
 70
   192
  0
VERTEX
  5
138
  8
0
 10
-4.622393608093262
 20
218.2190399169922
 30
10.69999980926514
 70
   192
  0
VERTEX
  5
139
  8
0
 10
21.87337303161621
 20
211.6436462402344
 30
10.69999980926514
 70
   192
  0
VERTEX
  5
13A
  8
0
 10
28.81817054748535
 20
205.4841461181641
 30
10.69999980926514
 70
   192
  0
VERTEX
  5
13B
  8
0
 10
34.0818977355957
 20
197.8515472412109
 30
10.69999980926514
 70
   192
  0
VERTEX
  5
13C
  8
0
 10
37.36684417724609
 20
189.1880187988281
 30
10.69999980926514
 70
   192
  0
VERTEX
  5
13D
  8
0
 62
   253
 10
0.0
 20
0.0
 30
0.0
 70
   128
 71
     3
 72
     2
 73
     1
  0
VERTEX
  5
13E
  8
0
 62
   253
 10
0.0
 20
0.0
 30
0.0
 70
   128
 71
     4
 72
     2
 73
     3
  0
VERTEX
  5
13F
  8
0
 62
   253
 10
0.0
 20
0.0
 30
0.0
 70
   128
 71
     3
 72
     1
 73
     5
  0
VERTEX
  5
140
  8
0
 62
   253
 10
0.0
 20
0.0
 30
0.0
 70
   128
 71
     7
 72
     6
 73
     2
  0
VERTEX
  5
141
  8
0
 62
   253
 10
0.0
 20
0.0
 30
0.0
 70
   128
 71
     2
 72
     4
 73
     7
  0
VERTEX
  5
142
  8
0
 62
   253
 10
0.0
 20
0.0
 30
0.0
 70
   128
 71
     9
 72
     8
 73
     6
  0
VERTEX
  5
143
  8
0
 62
   253
 10
0.0
 20
0.0
 30
0.0
 70
   128
 71
     9
 72
     6
 73
     7
  0
VERTEX
  5
144
  8
0
 62
   253
 10
0.0
 20
0.0
 30
0.0
 70
   128
 71
     6
 72
    11
 73
    10
  0
VERTEX
  5
145
  8
0
 62
   253
 10
0.0
 20
0.0
 30
0.0
 70
   128
 71
    11
 72
     6
 73
     8
  0
VERTEX
  5
146
  8
0
 62
   253
 10
0.0
 20
0.0
 30
0.0
 70
   128
 71
    11
 72
    12
 73
    10
  0
VERTEX
  5
147
  8
0
 62
   253
 10
0.0
 20
0.0
 30
0.0
 70
   128
 71
    14
 72
    13
 73
    10
  0
VERTEX
  5
148
  8
0
 62
   253
 10
0.0
 20
0.0
 30
0.0
 70
   128
 71
    15
 72
    13
 73
    14
  0
VERTEX
  5
149
  8
0
 62
   253
 10
0.0
 20
0.0
 30
0.0
 70
   128
 71
    14
 72
    10
 73
    12
  0
VERTEX
  5
14A
  8
0
 62
   253
 10
0.0
 20
0.0
 30
0.0
 70
   128
 71
    17
 72
    16
 73
    13
  0
VERTEX
  5
14B
  8
0
 62
   253
 10
0.0
 20
0.0
 30
0.0
 70
   128
 71
    13
 72
    15
 73
    17
  0
VERTEX
  5
14C
  8
0
 62
   253
 10
0.0
 20
0.0
 30
0.0
 70
   128
 71
    19
 72
    18
 73
    16
  0
VERTEX
  5
14D
  8
0
 62
   253
 10
0.0
 20
0.0
 30
0.0
 70
   128
 71
    19
 72
    16
 73
    17
  0
VERTEX
  5
14E
  8
0
 62
   253
 10
0.0
 20
0.0
 30
0.0
 70
   128
 71
    16
 72
    21
 73
    20
  0
VERTEX
  5
14F
  8
0
 62
   253
 10
0.0
 20
0.0
 30
0.0
 70
   128
 71
    21
 72
    16
 73
    18
  0
VERTEX
  5
150
  8
0
 62
   253
 10
0.0
 20
0.0
 30
0.0
 70
   128
 71
    21
 72
    22
 73
    20
  0
VERTEX
  5
151
  8
0
 62
   253
 10
0.0
 20
0.0
 30
0.0
 70
   128
 71
    25
 72
    24
 73
    23
  0
VERTEX
  5
152
  8
0
 62
   253
 10
0.0
 20
0.0
 30
0.0
 70
   128
 71
    23
 72
    24
 73
    20
  0
VERTEX
  5
153
  8
0
 62
   253
 10
0.0
 20
0.0
 30
0.0
 70
   128
 71
    22
 72
    23
 73
    20
  0
VERTEX
  5
154
  8
0
 62
   253
 10
0.0
 20
0.0
 30
0.0
 70
   128
 71
    24
 72
    25
 73
    26
  0
VERTEX
  5
155
  8
0
 62
   253
 10
0.0
 20
0.0
 30
0.0
 70
   128
 71
    28
 72
    27
 73
    26
  0
VERTEX
  5
156
  8
0
 62
   253
 10
0.0
 20
0.0
 30
0.0
 70
   128
 71
    24
 72
    26
 73
    27
  0
VERTEX
  5
157
  8
0
 62
   253
 10
0.0
 20
0.0
 30
0.0
 70
   128
 71
    28
 72
    30
 73
    29
  0
VERTEX
  5
158
  8
0
 62
   253
 10
0.0
 20
0.0
 30
0.0
 70
   128
 71
    29
 72
    27
 73
    28
  0
VERTEX
  5
159
  8
0
 62
   253
 10
0.0
 20
0.0
 30
0.0
 70
   128
 71
    29
 72
    32
 73
    31
  0
VERTEX
  5
15A
  8
0
 62
   253
 10
0.0
 20
0.0
 30
0.0
 70
   128
 71
    32
 72
    29
 73
    30
  0
VERTEX
  5
15B
  8
0
 62
   253
 10
0.0
 20
0.0
 30
0.0
 70
   128
 71
    32
 72
    33
 73
    31
  0
VERTEX
  5
15C
  8
0
 62
   253
 10
0.0
 20
0.0
 30
0.0
 70
   128
 71
    36
 72
    35
 73
    34
  0
VERTEX
  5
15D
  8
0
 62
   253
 10
0.0
 20
0.0
 30
0.0
 70
   128
 71
    38
 72
    35
 73
    37
  0
VERTEX
  5
15E
  8
0
 62
   253
 10
0.0
 20
0.0
 30
0.0
 70
   128
 71
    35
 72
    38
 73
    34
  0
VERTEX
  5
15F
  8
0
 62
   253
 10
0.0
 20
0.0
 30
0.0
 70
   128
 71
    40
 72
    39
 73
    37
  0
VERTEX
  5
160
  8
0
 62
   253
 10
0.0
 20
0.0
 30
0.0
 70
   128
 71
    38
 72
    37
 73
    39
  0
VERTEX
  5
161
  8
0
 62
   253
 10
0.0
 20
0.0
 30
0.0
 70
   128
 71
    40
 72
    42
 73
    41
  0
VERTEX
  5
162
  8
0
 62
   253
 10
0.0
 20
0.0
 30
0.0
 70
   128
 71
    41
 72
    39
 73
    40
  0
VERTEX
  5
163
  8
0
 62
   253
 10
0.0
 20
0.0
 30
0.0
 70
   128
 71
    44
 72
    42
 73
    43
  0
VERTEX
  5
164
  8
0
 62
   253
 10
0.0
 20
0.0
 30
0.0
 70
   128
 71
    42
 72
    44
 73
    41
  0
VERTEX
  5
165
  8
0
 62
   253
 10
0.0
 20
0.0
 30
0.0
 70
   128
 71
    46
 72
    45
 73
    43
  0
VERTEX
  5
166
  8
0
 62
   253
 10
0.0
 20
0.0
 30
0.0
 70
   128
 71
    44
 72
    43
 73
    45
  0
VERTEX
  5
167
  8
0
 62
   253
 10
0.0
 20
0.0
 30
0.0
 70
   128
 71
    47
 72
    45
 73
    46
  0
VERTEX
  5
168
  8
0
 62
   253
 10
0.0
 20
0.0
 30
0.0
 70
   128
 71
    48
 72
    47
 73
    46
  0
VERTEX
  5
169
  8
0
 62
   253
 10
0.0
 20
0.0
 30
0.0
 70
   128
 71
    34
 72
    49
 73
    36
  0
VERTEX
  5
16A
  8
0
 62
   253
 10
0.0
 20
0.0
 30
0.0
 70
   128
 71
    51
 72
    50
 73
    49
  0
VERTEX
  5
16B
  8
0
 62
   253
 10
0.0
 20
0.0
 30
0.0
 70
   128
 71
    36
 72
    49
 73
    50
  0
VERTEX
  5
16C
  8
0
 62
   253
 10
0.0
 20
0.0
 30
0.0
 70
   128
 71
    51
 72
    53
 73
    52
  0
VERTEX
  5
16D
  8
0
 62
   253
 10
0.0
 20
0.0
 30
0.0
 70
   128
 71
    52
 72
    50
 73
    51
  0
VERTEX
  5
16E
  8
0
 62
   253
 10
0.0
 20
0.0
 30
0.0
 70
   128
 71
    55
 72
    53
 73
    54
  0
VERTEX
  5
16F
  8
0
 62
   253
 10
0.0
 20
0.0
 30
0.0
 70
   128
 71
    53
 72
    55
 73
    52
  0
VERTEX
  5
170
  8
0
 62
   253
 10
0.0
 20
0.0
 30
0.0
 70
   128
 71
    57
 72
    56
 73
    54
  0
VERTEX
  5
171
  8
0
 62
   253
 10
0.0
 20
0.0
 30
0.0
 70
   128
 71
    55
 72
    54
 73
    56
  0
VERTEX
  5
172
  8
0
 62
   253
 10
0.0
 20
0.0
 30
0.0
 70
   128
 71
    57
 72
    59
 73
    58
  0
VERTEX
  5
173
  8
0
 62
   253
 10
0.0
 20
0.0
 30
0.0
 70
   128
 71
    58
 72
    56
 73
    57
  0
VERTEX
  5
174
  8
0
 62
   253
 10
0.0
 20
0.0
 30
0.0
 70
   128
 71
    59
 72
    60
 73
    58
  0
VERTEX
  5
175
  8
0
 62
   253
 10
0.0
 20
0.0
 30
0.0
 70
   128
 71
    59
 72
    61
 73
    60
  0
VERTEX
  5
176
  8
0
 62
   253
 10
0.0
 20
0.0
 30
0.0
 70
   128
 71
    22
 72
    63
 73
    62
  0
VERTEX
  5
177
  8
0
 62
   253
 10
0.0
 20
0.0
 30
0.0
 70
   128
 71
    63
 72
    21
 73
    64
  0
VERTEX
  5
178
  8
0
 62
   253
 10
0.0
 20
0.0
 30
0.0
 70
   128
 71
    21
 72
    63
 73
    22
  0
VERTEX
  5
179
  8
0
 62
   253
 10
0.0
 20
0.0
 30
0.0
 70
   128
 71
    65
 72
    64
 73
    18
  0
VERTEX
  5
17A
  8
0
 62
   253
 10
0.0
 20
0.0
 30
0.0
 70
   128
 71
    21
 72
    18
 73
    64
  0
VERTEX
  5
17B
  8
0
 62
   253
 10
0.0
 20
0.0
 30
0.0
 70
   128
 71
    65
 72
    18
 73
    19
  0
VERTEX
  5
17C
  8
0
 62
   253
 10
0.0
 20
0.0
 30
0.0
 70
   128
 71
    19
 72
    17
 73
    66
  0
VERTEX
  5
17D
  8
0
 62
   253
 10
0.0
 20
0.0
 30
0.0
 70
   128
 71
    66
 72
    65
 73
    19
  0
VERTEX
  5
17E
  8
0
 62
   253
 10
0.0
 20
0.0
 30
0.0
 70
   128
 71
    67
 72
    17
 73
    15
  0
VERTEX
  5
17F
  8
0
 62
   253
 10
0.0
 20
0.0
 30
0.0
 70
   128
 71
    17
 72
    67
 73
    66
  0
VERTEX
  5
180
  8
0
 62
   253
 10
0.0
 20
0.0
 30
0.0
 70
   128
 71
    14
 72
    68
 73
    15
  0
VERTEX
  5
181
  8
0
 62
   253
 10
0.0
 20
0.0
 30
0.0
 70
   128
 71
    67
 72
    15
 73
    68
  0
VERTEX
  5
182
  8
0
 62
   253
 10
0.0
 20
0.0
 30
0.0
 70
   128
 71
    69
 72
    68
 73
    14
  0
VERTEX
  5
183
  8
0
 62
   253
 10
0.0
 20
0.0
 30
0.0
 70
   128
 71
    12
 72
    69
 73
    14
  0
VERTEX
  5
184
  8
0
 62
   253
 10
0.0
 20
0.0
 30
0.0
 70
   128
 71
    23
 72
    22
 73
    62
  0
VERTEX
  5
185
  8
0
 62
   253
 10
0.0
 20
0.0
 30
0.0
 70
   128
 71
    25
 72
    23
 73
    70
  0
VERTEX
  5
186
  8
0
 62
   253
 10
0.0
 20
0.0
 30
0.0
 70
   128
 71
    62
 72
    70
 73
    23
  0
VERTEX
  5
187
  8
0
 62
   253
 10
0.0
 20
0.0
 30
0.0
 70
   128
 71
    71
 72
    26
 73
    25
  0
VERTEX
  5
188
  8
0
 62
   253
 10
0.0
 20
0.0
 30
0.0
 70
   128
 71
    25
 72
    70
 73
    71
  0
VERTEX
  5
189
  8
0
 62
   253
 10
0.0
 20
0.0
 30
0.0
 70
   128
 71
    26
 72
    72
 73
    28
  0
VERTEX
  5
18A
  8
0
 62
   253
 10
0.0
 20
0.0
 30
0.0
 70
   128
 71
    72
 72
    26
 73
    71
  0
VERTEX
  5
18B
  8
0
 62
   253
 10
0.0
 20
0.0
 30
0.0
 70
   128
 71
    30
 72
    28
 73
    73
  0
VERTEX
  5
18C
  8
0
 62
   253
 10
0.0
 20
0.0
 30
0.0
 70
   128
 71
    72
 72
    73
 73
    28
  0
VERTEX
  5
18D
  8
0
 62
   253
 10
0.0
 20
0.0
 30
0.0
 70
   128
 71
    74
 72
    32
 73
    30
  0
VERTEX
  5
18E
  8
0
 62
   253
 10
0.0
 20
0.0
 30
0.0
 70
   128
 71
    30
 72
    73
 73
    74
  0
VERTEX
  5
18F
  8
0
 62
   253
 10
0.0
 20
0.0
 30
0.0
 70
   128
 71
    75
 72
    32
 73
    74
  0
VERTEX
  5
190
  8
0
 62
   253
 10
0.0
 20
0.0
 30
0.0
 70
   128
 71
    75
 72
    33
 73
    32
  0
VERTEX
  5
191
  8
0
 62
   253
 10
0.0
 20
0.0
 30
0.0
 70
   128
 71
    78
 72
    77
 73
    76
  0
VERTEX
  5
192
  8
0
 62
   253
 10
0.0
 20
0.0
 30
0.0
 70
   128
 71
    80
 72
    79
 73
    78
  0
VERTEX
  5
193
  8
0
 62
   253
 10
0.0
 20
0.0
 30
0.0
 70
   128
 71
    78
 72
    76
 73
    80
  0
VERTEX
  5
194
  8
0
 62
   253
 10
0.0
 20
0.0
 30
0.0
 70
   128
 71
    79
 72
    82
 73
    81
  0
VERTEX
  5
195
  8
0
 62
   253
 10
0.0
 20
0.0
 30
0.0
 70
   128
 71
    82
 72
    79
 73
    80
  0
VERTEX
  5
196
  8
0
 62
   253
 10
0.0
 20
0.0
 30
0.0
 70
   128
 71
    84
 72
    81
 73
    83
  0
VERTEX
  5
197
  8
0
 62
   253
 10
0.0
 20
0.0
 30
0.0
 70
   128
 71
    82
 72
    83
 73
    81
  0
VERTEX
  5
198
  8
0
 62
   253
 10
0.0
 20
0.0
 30
0.0
 70
   128
 71
    86
 72
    85
 73
    84
  0
VERTEX
  5
199
  8
0
 62
   253
 10
0.0
 20
0.0
 30
0.0
 70
   128
 71
    84
 72
    83
 73
    86
  0
VERTEX
  5
19A
  8
0
 62
   253
 10
0.0
 20
0.0
 30
0.0
 70
   128
 71
    85
 72
    88
 73
    87
  0
VERTEX
  5
19B
  8
0
 62
   253
 10
0.0
 20
0.0
 30
0.0
 70
   128
 71
    88
 72
    85
 73
    86
  0
VERTEX
  5
19C
  8
0
 62
   253
 10
0.0
 20
0.0
 30
0.0
 70
   128
 71
    90
 72
    87
 73
    89
  0
VERTEX
  5
19D
  8
0
 62
   253
 10
0.0
 20
0.0
 30
0.0
 70
   128
 71
    88
 72
    89
 73
    87
  0
VERTEX
  5
19E
  8
0
 62
   253
 10
0.0
 20
0.0
 30
0.0
 70
   128
 71
    92
 72
    91
 73
    90
  0
VERTEX
  5
19F
  8
0
 62
   253
 10
0.0
 20
0.0
 30
0.0
 70
   128
 71
    90
 72
    89
 73
    92
  0
VERTEX
  5
1A0
  8
0
 62
   253
 10
0.0
 20
0.0
 30
0.0
 70
   128
 71
    91
 72
    94
 73
    93
  0
VERTEX
  5
1A1
  8
0
 62
   253
 10
0.0
 20
0.0
 30
0.0
 70
   128
 71
    94
 72
    91
 73
    92
  0
VERTEX
  5
1A2
  8
0
 62
   253
 10
0.0
 20
0.0
 30
0.0
 70
   128
 71
    96
 72
    93
 73
    95
  0
VERTEX
  5
1A3
  8
0
 62
   253
 10
0.0
 20
0.0
 30
0.0
 70
   128
 71
    94
 72
    95
 73
    93
  0
VERTEX
  5
1A4
  8
0
 62
   253
 10
0.0
 20
0.0
 30
0.0
 70
   128
 71
    98
 72
    97
 73
    96
  0
VERTEX
  5
1A5
  8
0
 62
   253
 10
0.0
 20
0.0
 30
0.0
 70
   128
 71
    96
 72
    95
 73
    98
  0
VERTEX
  5
1A6
  8
0
 62
   253
 10
0.0
 20
0.0
 30
0.0
 70
   128
 71
    97
 72
   100
 73
    99
  0
VERTEX
  5
1A7
  8
0
 62
   253
 10
0.0
 20
0.0
 30
0.0
 70
   128
 71
   100
 72
    97
 73
    98
  0
VERTEX
  5
1A8
  8
0
 62
   253
 10
0.0
 20
0.0
 30
0.0
 70
   128
 71
   102
 72
    99
 73
   101
  0
VERTEX
  5
1A9
  8
0
 62
   253
 10
0.0
 20
0.0
 30
0.0
 70
   128
 71
   100
 72
   101
 73
    99
  0
VERTEX
  5
1AA
  8
0
 62
   253
 10
0.0
 20
0.0
 30
0.0
 70
   128
 71
   104
 72
   103
 73
   102
  0
VERTEX
  5
1AB
  8
0
 62
   253
 10
0.0
 20
0.0
 30
0.0
 70
   128
 71
   102
 72
   101
 73
   104
  0
VERTEX
  5
1AC
  8
0
 62
   253
 10
0.0
 20
0.0
 30
0.0
 70
   128
 71
   103
 72
   106
 73
   105
  0
VERTEX
  5
1AD
  8
0
 62
   253
 10
0.0
 20
0.0
 30
0.0
 70
   128
 71
   106
 72
   103
 73
   104
  0
VERTEX
  5
1AE
  8
0
 62
   253
 10
0.0
 20
0.0
 30
0.0
 70
   128
 71
   105
 72
   108
 73
   107
  0
VERTEX
  5
1AF
  8
0
 62
   253
 10
0.0
 20
0.0
 30
0.0
 70
   128
 71
   106
 72
   108
 73
   105
  0
VERTEX
  5
1B0
  8
0
 62
   253
 10
0.0
 20
0.0
 30
0.0
 70
   128
 71
   110
 72
   109
 73
   107
  0
VERTEX
  5
1B1
  8
0
 62
   253
 10
0.0
 20
0.0
 30
0.0
 70
   128
 71
   105
 72
   107
 73
   109
  0
VERTEX
  5
1B2
  8
0
 62
   253
 10
0.0
 20
0.0
 30
0.0
 70
   128
 71
   111
 72
   109
 73
   110
  0
VERTEX
  5
1B3
  8
0
 62
   253
 10
0.0
 20
0.0
 30
0.0
 70
   128
 71
   112
 72
    76
 73
    77
  0
VERTEX
  5
1B4
  8
0
 62
   253
 10
0.0
 20
0.0
 30
0.0
 70
   128
 71
   112
 72
   114
 73
   113
  0
VERTEX
  5
1B5
  8
0
 62
   253
 10
0.0
 20
0.0
 30
0.0
 70
   128
 71
   114
 72
   112
 73
    77
  0
VERTEX
  5
1B6
  8
0
 62
   253
 10
0.0
 20
0.0
 30
0.0
 70
   128
 71
   116
 72
   113
 73
   115
  0
VERTEX
  5
1B7
  8
0
 62
   253
 10
0.0
 20
0.0
 30
0.0
 70
   128
 71
   114
 72
   115
 73
   113
  0
VERTEX
  5
1B8
  8
0
 62
   253
 10
0.0
 20
0.0
 30
0.0
 70
   128
 71
   118
 72
   117
 73
   116
  0
VERTEX
  5
1B9
  8
0
 62
   253
 10
0.0
 20
0.0
 30
0.0
 70
   128
 71
   116
 72
   115
 73
   118
  0
VERTEX
  5
1BA
  8
0
 62
   253
 10
0.0
 20
0.0
 30
0.0
 70
   128
 71
   117
 72
   120
 73
   119
  0
VERTEX
  5
1BB
  8
0
 62
   253
 10
0.0
 20
0.0
 30
0.0
 70
   128
 71
   120
 72
   117
 73
   118
  0
VERTEX
  5
1BC
  8
0
 62
   253
 10
0.0
 20
0.0
 30
0.0
 70
   128
 71
   122
 72
   119
 73
   121
  0
VERTEX
  5
1BD
  8
0
 62
   253
 10
0.0
 20
0.0
 30
0.0
 70
   128
 71
   120
 72
   121
 73
   119
  0
VERTEX
  5
1BE
  8
0
 62
   253
 10
0.0
 20
0.0
 30
0.0
 70
   128
 71
   124
 72
   123
 73
   122
  0
VERTEX
  5
1BF
  8
0
 62
   253
 10
0.0
 20
0.0
 30
0.0
 70
   128
 71
   122
 72
   121
 73
   124
  0
VERTEX
  5
1C0
  8
0
 62
   253
 10
0.0
 20
0.0
 30
0.0
 70
   128
 71
   123
 72
   126
 73
   125
  0
VERTEX
  5
1C1
  8
0
 62
   253
 10
0.0
 20
0.0
 30
0.0
 70
   128
 71
   126
 72
   123
 73
   124
  0
VERTEX
  5
1C2
  8
0
 62
   253
 10
0.0
 20
0.0
 30
0.0
 70
   128
 71
   128
 72
   125
 73
   127
  0
VERTEX
  5
1C3
  8
0
 62
   253
 10
0.0
 20
0.0
 30
0.0
 70
   128
 71
   126
 72
   127
 73
   125
  0
VERTEX
  5
1C4
  8
0
 62
   253
 10
0.0
 20
0.0
 30
0.0
 70
   128
 71
   130
 72
   129
 73
   128
  0
VERTEX
  5
1C5
  8
0
 62
   253
 10
0.0
 20
0.0
 30
0.0
 70
   128
 71
   128
 72
   127
 73
   130
  0
VERTEX
  5
1C6
  8
0
 62
   253
 10
0.0
 20
0.0
 30
0.0
 70
   128
 71
   129
 72
   132
 73
   131
  0
VERTEX
  5
1C7
  8
0
 62
   253
 10
0.0
 20
0.0
 30
0.0
 70
   128
 71
   132
 72
   129
 73
   130
  0
VERTEX
  5
1C8
  8
0
 62
   253
 10
0.0
 20
0.0
 30
0.0
 70
   128
 71
   134
 72
   131
 73
   133
  0
VERTEX
  5
1C9
  8
0
 62
   253
 10
0.0
 20
0.0
 30
0.0
 70
   128
 71
   132
 72
   133
 73
   131
  0
VERTEX
  5
1CA
  8
0
 62
   253
 10
0.0
 20
0.0
 30
0.0
 70
   128
 71
   136
 72
   135
 73
   134
  0
VERTEX
  5
1CB
  8
0
 62
   253
 10
0.0
 20
0.0
 30
0.0
 70
   128
 71
   134
 72
   133
 73
   136
  0
VERTEX
  5
1CC
  8
0
 62
   253
 10
0.0
 20
0.0
 30
0.0
 70
   128
 71
   135
 72
   138
 73
   137
  0
VERTEX
  5
1CD
  8
0
 62
   253
 10
0.0
 20
0.0
 30
0.0
 70
   128
 71
   138
 72
   135
 73
   136
  0
VERTEX
  5
1CE
  8
0
 62
   253
 10
0.0
 20
0.0
 30
0.0
 70
   128
 71
   140
 72
   137
 73
   139
  0
VERTEX
  5
1CF
  8
0
 62
   253
 10
0.0
 20
0.0
 30
0.0
 70
   128
 71
   138
 72
   139
 73
   137
  0
VERTEX
  5
1D0
  8
0
 62
   253
 10
0.0
 20
0.0
 30
0.0
 70
   128
 71
   142
 72
   140
 73
   141
  0
VERTEX
  5
1D1
  8
0
 62
   253
 10
0.0
 20
0.0
 30
0.0
 70
   128
 71
   140
 72
   139
 73
   141
  0
VERTEX
  5
1D2
  8
0
 62
   253
 10
0.0
 20
0.0
 30
0.0
 70
   128
 71
   142
 72
   144
 73
   143
  0
VERTEX
  5
1D3
  8
0
 62
   253
 10
0.0
 20
0.0
 30
0.0
 70
   128
 71
   143
 72
   140
 73
   142
  0
VERTEX
  5
1D4
  8
0
 62
   253
 10
0.0
 20
0.0
 30
0.0
 70
   128
 71
   144
 72
   145
 73
   143
  0
VERTEX
  5
1D5
  8
0
 62
   253
 10
0.0
 20
0.0
 30
0.0
 70
   128
 71
     2
 72
     6
 73
    27
  0
VERTEX
  5
1D6
  8
0
 62
   253
 10
0.0
 20
0.0
 30
0.0
 70
   128
 71
    20
 72
    10
 73
    13
  0
VERTEX
  5
1D7
  8
0
 62
   253
 10
0.0
 20
0.0
 30
0.0
 70
   128
 71
    16
 72
    20
 73
    13
  0
VERTEX
  5
1D8
  8
0
 62
   253
 10
0.0
 20
0.0
 30
0.0
 70
   128
 71
    29
 72
     1
 73
     2
  0
VERTEX
  5
1D9
  8
0
 62
   253
 10
0.0
 20
0.0
 30
0.0
 70
   128
 71
    24
 72
    10
 73
    20
  0
VERTEX
  5
1DA
  8
0
 62
   253
 10
0.0
 20
0.0
 30
0.0
 70
   128
 71
    31
 72
   147
 73
   146
  0
VERTEX
  5
1DB
  8
0
 62
   253
 10
0.0
 20
0.0
 30
0.0
 70
   128
 71
   146
 72
     1
 73
    31
  0
VERTEX
  5
1DC
  8
0
 62
   253
 10
0.0
 20
0.0
 30
0.0
 70
   128
 71
   146
 72
   147
 73
   148
  0
VERTEX
  5
1DD
  8
0
 62
   253
 10
0.0
 20
0.0
 30
0.0
 70
   128
 71
    29
 72
    31
 73
     1
  0
VERTEX
  5
1DE
  8
0
 62
   253
 10
0.0
 20
0.0
 30
0.0
 70
   128
 71
    24
 72
    27
 73
     6
  0
VERTEX
  5
1DF
  8
0
 62
   253
 10
0.0
 20
0.0
 30
0.0
 70
   128
 71
    29
 72
     2
 73
    27
  0
VERTEX
  5
1E0
  8
0
 62
   253
 10
0.0
 20
0.0
 30
0.0
 70
   128
 71
     6
 72
    10
 73
    24
  0
VERTEX
  5
1E1
  8
0
 62
   253
 10
0.0
 20
0.0
 30
0.0
 70
   128
 71
   151
 72
   150
 73
   149
  0
VERTEX
  5
1E2
  8
0
 62
   253
 10
0.0
 20
0.0
 30
0.0
 70
   128
 71
    40
 72
    91
 73
    42
  0
VERTEX
  5
1E3
  8
0
 62
   253
 10
0.0
 20
0.0
 30
0.0
 70
   128
 71
   132
 72
    55
 73
    56
  0
VERTEX
  5
1E4
  8
0
 62
   253
 10
0.0
 20
0.0
 30
0.0
 70
   128
 71
   154
 72
   153
 73
   152
  0
VERTEX
  5
1E5
  8
0
 62
   253
 10
0.0
 20
0.0
 30
0.0
 70
   128
 71
   138
 72
    56
 73
    58
  0
VERTEX
  5
1E6
  8
0
 62
   253
 10
0.0
 20
0.0
 30
0.0
 70
   128
 71
   126
 72
    52
 73
   127
  0
VERTEX
  5
1E7
  8
0
 62
   253
 10
0.0
 20
0.0
 30
0.0
 70
   128
 71
   153
 72
   156
 73
   155
  0
VERTEX
  5
1E8
  8
0
 62
   253
 10
0.0
 20
0.0
 30
0.0
 70
   128
 71
    52
 72
   121
 73
    50
  0
VERTEX
  5
1E9
  8
0
 62
   253
 10
0.0
 20
0.0
 30
0.0
 70
   128
 71
    35
 72
    36
 73
    77
  0
VERTEX
  5
1EA
  8
0
 62
   253
 10
0.0
 20
0.0
 30
0.0
 70
   128
 71
   158
 72
   149
 73
   157
  0
VERTEX
  5
1EB
  8
0
 62
   253
 10
0.0
 20
0.0
 30
0.0
 70
   128
 71
    37
 72
    35
 73
    81
  0
VERTEX
  5
1EC
  8
0
 62
   253
 10
0.0
 20
0.0
 30
0.0
 70
   128
 71
   161
 72
   160
 73
   159
  0
VERTEX
  5
1ED
  8
0
 62
   253
 10
0.0
 20
0.0
 30
0.0
 70
   128
 71
    85
 72
    87
 73
    40
  0
VERTEX
  5
1EE
  8
0
 62
   253
 10
0.0
 20
0.0
 30
0.0
 70
   128
 71
   159
 72
   163
 73
   162
  0
VERTEX
  5
1EF
  8
0
 62
   253
 10
0.0
 20
0.0
 30
0.0
 70
   128
 71
   165
 72
   163
 73
   164
  0
VERTEX
  5
1F0
  8
0
 62
   253
 10
0.0
 20
0.0
 30
0.0
 70
   128
 71
    43
 72
    96
 73
    97
  0
VERTEX
  5
1F1
  8
0
 62
   253
 10
0.0
 20
0.0
 30
0.0
 70
   128
 71
   168
 72
   167
 73
   166
  0
VERTEX
  5
1F2
  8
0
 62
   253
 10
0.0
 20
0.0
 30
0.0
 70
   128
 71
   102
 72
    46
 73
    43
  0
VERTEX
  5
1F3
  8
0
 62
   253
 10
0.0
 20
0.0
 30
0.0
 70
   128
 71
   171
 72
   170
 73
   169
  0
VERTEX
  5
1F4
  8
0
 62
   253
 10
0.0
 20
0.0
 30
0.0
 70
   128
 71
   173
 72
   171
 73
   172
  0
VERTEX
  5
1F5
  8
0
 62
   253
 10
0.0
 20
0.0
 30
0.0
 70
   128
 71
   109
 72
    48
 73
    46
  0
VERTEX
  5
1F6
  8
0
 62
   253
 10
0.0
 20
0.0
 30
0.0
 70
   128
 71
   175
 72
   167
 73
   174
  0
VERTEX
  5
1F7
  8
0
 62
   253
 10
0.0
 20
0.0
 30
0.0
 70
   128
 71
    36
 72
   118
 73
   115
  0
VERTEX
  5
1F8
  8
0
 62
   253
 10
0.0
 20
0.0
 30
0.0
 70
   128
 71
   177
 72
   154
 73
   176
  0
VERTEX
  5
1F9
  8
0
 62
   253
 10
0.0
 20
0.0
 30
0.0
 70
   128
 71
    60
 72
   142
 73
    58
  0
VERTEX
  5
1FA
  8
0
 62
   253
 10
0.0
 20
0.0
 30
0.0
 70
   128
 71
   144
 72
   142
 73
    60
  0
VERTEX
  5
1FB
  8
0
 62
   253
 10
0.0
 20
0.0
 30
0.0
 70
   128
 71
    58
 72
   141
 73
   139
  0
VERTEX
  5
1FC
  8
0
 62
   253
 10
0.0
 20
0.0
 30
0.0
 70
   128
 71
   142
 72
   141
 73
    58
  0
VERTEX
  5
1FD
  8
0
 62
   253
 10
0.0
 20
0.0
 30
0.0
 70
   128
 71
   139
 72
   138
 73
    58
  0
VERTEX
  5
1FE
  8
0
 62
   253
 10
0.0
 20
0.0
 30
0.0
 70
   128
 71
    56
 72
   136
 73
   133
  0
VERTEX
  5
1FF
  8
0
 62
   253
 10
0.0
 20
0.0
 30
0.0
 70
   128
 71
   138
 72
   136
 73
    56
  0
VERTEX
  5
200
  8
0
 62
   253
 10
0.0
 20
0.0
 30
0.0
 70
   128
 71
   133
 72
   132
 73
    56
  0
VERTEX
  5
201
  8
0
 62
   253
 10
0.0
 20
0.0
 30
0.0
 70
   128
 71
    55
 72
   130
 73
   127
  0
VERTEX
  5
202
  8
0
 62
   253
 10
0.0
 20
0.0
 30
0.0
 70
   128
 71
   132
 72
   130
 73
    55
  0
VERTEX
  5
203
  8
0
 62
   253
 10
0.0
 20
0.0
 30
0.0
 70
   128
 71
    55
 72
   127
 73
    52
  0
VERTEX
  5
204
  8
0
 62
   253
 10
0.0
 20
0.0
 30
0.0
 70
   128
 71
   124
 72
   121
 73
    52
  0
VERTEX
  5
205
  8
0
 62
   253
 10
0.0
 20
0.0
 30
0.0
 70
   128
 71
   126
 72
   124
 73
    52
  0
VERTEX
  5
206
  8
0
 62
   253
 10
0.0
 20
0.0
 30
0.0
 70
   128
 71
    50
 72
   120
 73
   118
  0
VERTEX
  5
207
  8
0
 62
   253
 10
0.0
 20
0.0
 30
0.0
 70
   128
 71
   121
 72
   120
 73
    50
  0
VERTEX
  5
208
  8
0
 62
   253
 10
0.0
 20
0.0
 30
0.0
 70
   128
 71
    50
 72
   118
 73
    36
  0
VERTEX
  5
209
  8
0
 62
   253
 10
0.0
 20
0.0
 30
0.0
 70
   128
 71
   114
 72
    77
 73
    36
  0
VERTEX
  5
20A
  8
0
 62
   253
 10
0.0
 20
0.0
 30
0.0
 70
   128
 71
   115
 72
   114
 73
    36
  0
VERTEX
  5
20B
  8
0
 62
   253
 10
0.0
 20
0.0
 30
0.0
 70
   128
 71
    35
 72
    78
 73
    79
  0
VERTEX
  5
20C
  8
0
 62
   253
 10
0.0
 20
0.0
 30
0.0
 70
   128
 71
    77
 72
    78
 73
    35
  0
VERTEX
  5
20D
  8
0
 62
   253
 10
0.0
 20
0.0
 30
0.0
 70
   128
 71
    79
 72
    81
 73
    35
  0
VERTEX
  5
20E
  8
0
 62
   253
 10
0.0
 20
0.0
 30
0.0
 70
   128
 71
    37
 72
    84
 73
    85
  0
VERTEX
  5
20F
  8
0
 62
   253
 10
0.0
 20
0.0
 30
0.0
 70
   128
 71
    81
 72
    84
 73
    37
  0
VERTEX
  5
210
  8
0
 62
   253
 10
0.0
 20
0.0
 30
0.0
 70
   128
 71
    37
 72
    85
 73
    40
  0
VERTEX
  5
211
  8
0
 62
   253
 10
0.0
 20
0.0
 30
0.0
 70
   128
 71
    90
 72
    91
 73
    40
  0
VERTEX
  5
212
  8
0
 62
   253
 10
0.0
 20
0.0
 30
0.0
 70
   128
 71
    87
 72
    90
 73
    40
  0
VERTEX
  5
213
  8
0
 62
   253
 10
0.0
 20
0.0
 30
0.0
 70
   128
 71
    42
 72
    93
 73
    96
  0
VERTEX
  5
214
  8
0
 62
   253
 10
0.0
 20
0.0
 30
0.0
 70
   128
 71
    91
 72
    93
 73
    42
  0
VERTEX
  5
215
  8
0
 62
   253
 10
0.0
 20
0.0
 30
0.0
 70
   128
 71
    42
 72
    96
 73
    43
  0
VERTEX
  5
216
  8
0
 62
   253
 10
0.0
 20
0.0
 30
0.0
 70
   128
 71
    99
 72
   102
 73
    43
  0
VERTEX
  5
217
  8
0
 62
   253
 10
0.0
 20
0.0
 30
0.0
 70
   128
 71
    97
 72
    99
 73
    43
  0
VERTEX
  5
218
  8
0
 62
   253
 10
0.0
 20
0.0
 30
0.0
 70
   128
 71
    46
 72
   103
 73
   105
  0
VERTEX
  5
219
  8
0
 62
   253
 10
0.0
 20
0.0
 30
0.0
 70
   128
 71
   102
 72
   103
 73
    46
  0
VERTEX
  5
21A
  8
0
 62
   253
 10
0.0
 20
0.0
 30
0.0
 70
   128
 71
   105
 72
   109
 73
    46
  0
VERTEX
  5
21B
  8
0
 62
   253
 10
0.0
 20
0.0
 30
0.0
 70
   128
 71
   109
 72
   111
 73
    48
  0
VERTEX
  5
21C
  8
0
 62
   253
 10
0.0
 20
0.0
 30
0.0
 70
   128
 71
    48
 72
   178
 73
   172
  0
VERTEX
  5
21D
  8
0
 62
   253
 10
0.0
 20
0.0
 30
0.0
 70
   128
 71
   111
 72
   178
 73
    48
  0
VERTEX
  5
21E
  8
0
 62
   253
 10
0.0
 20
0.0
 30
0.0
 70
   128
 71
   172
 72
   180
 73
   179
  0
VERTEX
  5
21F
  8
0
 62
   253
 10
0.0
 20
0.0
 30
0.0
 70
   128
 71
   178
 72
   180
 73
   172
  0
VERTEX
  5
220
  8
0
 62
   253
 10
0.0
 20
0.0
 30
0.0
 70
   128
 71
   179
 72
   173
 73
   172
  0
VERTEX
  5
221
  8
0
 62
   253
 10
0.0
 20
0.0
 30
0.0
 70
   128
 71
   171
 72
   182
 73
   181
  0
VERTEX
  5
222
  8
0
 62
   253
 10
0.0
 20
0.0
 30
0.0
 70
   128
 71
   173
 72
   182
 73
   171
  0
VERTEX
  5
223
  8
0
 62
   253
 10
0.0
 20
0.0
 30
0.0
 70
   128
 71
   181
 72
   170
 73
   171
  0
VERTEX
  5
224
  8
0
 62
   253
 10
0.0
 20
0.0
 30
0.0
 70
   128
 71
   169
 72
   183
 73
   174
  0
VERTEX
  5
225
  8
0
 62
   253
 10
0.0
 20
0.0
 30
0.0
 70
   128
 71
   170
 72
   183
 73
   169
  0
VERTEX
  5
226
  8
0
 62
   253
 10
0.0
 20
0.0
 30
0.0
 70
   128
 71
   169
 72
   174
 73
   167
  0
VERTEX
  5
227
  8
0
 62
   253
 10
0.0
 20
0.0
 30
0.0
 70
   128
 71
   184
 72
   166
 73
   167
  0
VERTEX
  5
228
  8
0
 62
   253
 10
0.0
 20
0.0
 30
0.0
 70
   128
 71
   175
 72
   184
 73
   167
  0
VERTEX
  5
229
  8
0
 62
   253
 10
0.0
 20
0.0
 30
0.0
 70
   128
 71
   168
 72
   185
 73
   164
  0
VERTEX
  5
22A
  8
0
 62
   253
 10
0.0
 20
0.0
 30
0.0
 70
   128
 71
   166
 72
   185
 73
   168
  0
VERTEX
  5
22B
  8
0
 62
   253
 10
0.0
 20
0.0
 30
0.0
 70
   128
 71
   168
 72
   164
 73
   163
  0
VERTEX
  5
22C
  8
0
 62
   253
 10
0.0
 20
0.0
 30
0.0
 70
   128
 71
   186
 72
   162
 73
   163
  0
VERTEX
  5
22D
  8
0
 62
   253
 10
0.0
 20
0.0
 30
0.0
 70
   128
 71
   165
 72
   186
 73
   163
  0
VERTEX
  5
22E
  8
0
 62
   253
 10
0.0
 20
0.0
 30
0.0
 70
   128
 71
   159
 72
   188
 73
   187
  0
VERTEX
  5
22F
  8
0
 62
   253
 10
0.0
 20
0.0
 30
0.0
 70
   128
 71
   162
 72
   188
 73
   159
  0
VERTEX
  5
230
  8
0
 62
   253
 10
0.0
 20
0.0
 30
0.0
 70
   128
 71
   187
 72
   161
 73
   159
  0
VERTEX
  5
231
  8
0
 62
   253
 10
0.0
 20
0.0
 30
0.0
 70
   128
 71
   160
 72
   189
 73
   157
  0
VERTEX
  5
232
  8
0
 62
   253
 10
0.0
 20
0.0
 30
0.0
 70
   128
 71
   161
 72
   189
 73
   160
  0
VERTEX
  5
233
  8
0
 62
   253
 10
0.0
 20
0.0
 30
0.0
 70
   128
 71
   160
 72
   157
 73
   149
  0
VERTEX
  5
234
  8
0
 62
   253
 10
0.0
 20
0.0
 30
0.0
 70
   128
 71
   190
 72
   151
 73
   149
  0
VERTEX
  5
235
  8
0
 62
   253
 10
0.0
 20
0.0
 30
0.0
 70
   128
 71
   158
 72
   190
 73
   149
  0
VERTEX
  5
236
  8
0
 62
   253
 10
0.0
 20
0.0
 30
0.0
 70
   128
 71
   150
 72
   191
 73
   156
  0
VERTEX
  5
237
  8
0
 62
   253
 10
0.0
 20
0.0
 30
0.0
 70
   128
 71
   151
 72
   191
 73
   150
  0
VERTEX
  5
238
  8
0
 62
   253
 10
0.0
 20
0.0
 30
0.0
 70
   128
 71
   150
 72
   156
 73
   153
  0
VERTEX
  5
239
  8
0
 62
   253
 10
0.0
 20
0.0
 30
0.0
 70
   128
 71
   192
 72
   152
 73
   153
  0
VERTEX
  5
23A
  8
0
 62
   253
 10
0.0
 20
0.0
 30
0.0
 70
   128
 71
   155
 72
   192
 73
   153
  0
VERTEX
  5
23B
  8
0
 62
   253
 10
0.0
 20
0.0
 30
0.0
 70
   128
 71
   154
 72
   193
 73
   176
  0
VERTEX
  5
23C
  8
0
 62
   253
 10
0.0
 20
0.0
 30
0.0
 70
   128
 71
   152
 72
   193
 73
   154
  0
VERTEX
  5
23D
  8
0
 62
   253
 10
0.0
 20
0.0
 30
0.0
 70
   128
 71
   177
 72
    60
 73
   154
  0
VERTEX
  5
23E
  8
0
 62
   253
 10
0.0
 20
0.0
 30
0.0
 70
   128
 71
    60
 72
   177
 73
   144
  0
VERTEX
  5
23F
  8
0
 62
   253
 10
0.0
 20
0.0
 30
0.0
 70
   128
 71
   111
 72
   110
 73
   194
  0
VERTEX
  5
240
  8
0
 62
   253
 10
0.0
 20
0.0
 30
0.0
 70
   128
 71
   173
 72
   196
 73
   195
  0
VERTEX
  5
241
  8
0
 62
   253
 10
0.0
 20
0.0
 30
0.0
 70
   128
 71
   179
 72
   180
 73
   197
  0
VERTEX
  5
242
  8
0
 62
   253
 10
0.0
 20
0.0
 30
0.0
 70
   128
 71
   198
 72
   183
 73
   170
  0
VERTEX
  5
243
  8
0
 62
   253
 10
0.0
 20
0.0
 30
0.0
 70
   128
 71
   200
 72
   181
 73
   199
  0
VERTEX
  5
244
  8
0
 62
   253
 10
0.0
 20
0.0
 30
0.0
 70
   128
 71
   184
 72
   202
 73
   201
  0
VERTEX
  5
245
  8
0
 62
   253
 10
0.0
 20
0.0
 30
0.0
 70
   128
 71
   174
 72
   203
 73
   175
  0
VERTEX
  5
246
  8
0
 62
   253
 10
0.0
 20
0.0
 30
0.0
 70
   128
 71
   204
 72
   165
 73
   164
  0
VERTEX
  5
247
  8
0
 62
   253
 10
0.0
 20
0.0
 30
0.0
 70
   128
 71
   206
 72
   185
 73
   205
  0
VERTEX
  5
248
  8
0
 62
   253
 10
0.0
 20
0.0
 30
0.0
 70
   128
 71
   188
 72
   162
 73
   207
  0
VERTEX
  5
249
  8
0
 62
   253
 10
0.0
 20
0.0
 30
0.0
 70
   128
 71
   186
 72
   209
 73
   208
  0
VERTEX
  5
24A
  8
0
 62
   253
 10
0.0
 20
0.0
 30
0.0
 70
   128
 71
   161
 72
   210
 73
   189
  0
VERTEX
  5
24B
  8
0
 62
   253
 10
0.0
 20
0.0
 30
0.0
 70
   128
 71
   212
 72
   211
 73
   187
  0
VERTEX
  5
24C
  8
0
 62
   253
 10
0.0
 20
0.0
 30
0.0
 70
   128
 71
   214
 72
   213
 73
   158
  0
VERTEX
  5
24D
  8
0
 62
   253
 10
0.0
 20
0.0
 30
0.0
 70
   128
 71
   215
 72
   157
 73
   189
  0
VERTEX
  5
24E
  8
0
 62
   253
 10
0.0
 20
0.0
 30
0.0
 70
   128
 71
   217
 72
   216
 73
   151
  0
VERTEX
  5
24F
  8
0
 62
   253
 10
0.0
 20
0.0
 30
0.0
 70
   128
 71
   217
 72
   190
 73
   213
  0
VERTEX
  5
250
  8
0
 62
   253
 10
0.0
 20
0.0
 30
0.0
 70
   128
 71
   191
 72
   218
 73
   156
  0
VERTEX
  5
251
  8
0
 62
   253
 10
0.0
 20
0.0
 30
0.0
 70
   128
 71
   218
 72
   191
 73
   216
  0
VERTEX
  5
252
  8
0
 62
   253
 10
0.0
 20
0.0
 30
0.0
 70
   128
 71
   155
 72
   156
 73
   219
  0
VERTEX
  5
253
  8
0
 62
   253
 10
0.0
 20
0.0
 30
0.0
 70
   128
 71
   218
 72
   219
 73
   156
  0
VERTEX
  5
254
  8
0
 62
   253
 10
0.0
 20
0.0
 30
0.0
 70
   128
 71
   220
 72
   192
 73
   155
  0
VERTEX
  5
255
  8
0
 62
   253
 10
0.0
 20
0.0
 30
0.0
 70
   128
 71
   155
 72
   219
 73
   220
  0
VERTEX
  5
256
  8
0
 62
   253
 10
0.0
 20
0.0
 30
0.0
 70
   128
 71
   192
 72
   221
 73
   152
  0
VERTEX
  5
257
  8
0
 62
   253
 10
0.0
 20
0.0
 30
0.0
 70
   128
 71
   221
 72
   192
 73
   220
  0
VERTEX
  5
258
  8
0
 62
   253
 10
0.0
 20
0.0
 30
0.0
 70
   128
 71
   193
 72
   152
 73
   222
  0
VERTEX
  5
259
  8
0
 62
   253
 10
0.0
 20
0.0
 30
0.0
 70
   128
 71
   221
 72
   222
 73
   152
  0
VERTEX
  5
25A
  8
0
 62
   253
 10
0.0
 20
0.0
 30
0.0
 70
   128
 71
   223
 72
   176
 73
   193
  0
VERTEX
  5
25B
  8
0
 62
   253
 10
0.0
 20
0.0
 30
0.0
 70
   128
 71
   193
 72
   222
 73
   223
  0
VERTEX
  5
25C
  8
0
 62
   253
 10
0.0
 20
0.0
 30
0.0
 70
   128
 71
   225
 72
   224
 73
   176
  0
VERTEX
  5
25D
  8
0
 62
   253
 10
0.0
 20
0.0
 30
0.0
 70
   128
 71
   225
 72
   176
 73
   223
  0
VERTEX
  5
25E
  8
0
 62
   253
 10
0.0
 20
0.0
 30
0.0
 70
   128
 71
   177
 72
   224
 73
   145
  0
VERTEX
  5
25F
  8
0
 62
   253
 10
0.0
 20
0.0
 30
0.0
 70
   128
 71
   224
 72
   177
 73
   176
  0
VERTEX
  5
260
  8
0
 62
   253
 10
0.0
 20
0.0
 30
0.0
 70
   128
 71
   177
 72
   145
 73
   144
  0
VERTEX
  5
261
  8
0
 62
   253
 10
0.0
 20
0.0
 30
0.0
 70
   128
 71
   217
 72
   151
 73
   190
  0
VERTEX
  5
262
  8
0
 62
   253
 10
0.0
 20
0.0
 30
0.0
 70
   128
 71
   216
 72
   191
 73
   151
  0
VERTEX
  5
263
  8
0
 62
   253
 10
0.0
 20
0.0
 30
0.0
 70
   128
 71
   158
 72
   157
 73
   214
  0
VERTEX
  5
264
  8
0
 62
   253
 10
0.0
 20
0.0
 30
0.0
 70
   128
 71
   213
 72
   190
 73
   158
  0
VERTEX
  5
265
  8
0
 62
   253
 10
0.0
 20
0.0
 30
0.0
 70
   128
 71
   210
 72
   215
 73
   189
  0
VERTEX
  5
266
  8
0
 62
   253
 10
0.0
 20
0.0
 30
0.0
 70
   128
 71
   215
 72
   214
 73
   157
  0
VERTEX
  5
267
  8
0
 62
   253
 10
0.0
 20
0.0
 30
0.0
 70
   128
 71
   187
 72
   211
 73
   161
  0
VERTEX
  5
268
  8
0
 62
   253
 10
0.0
 20
0.0
 30
0.0
 70
   128
 71
   211
 72
   210
 73
   161
  0
VERTEX
  5
269
  8
0
 62
   253
 10
0.0
 20
0.0
 30
0.0
 70
   128
 71
   188
 72
   207
 73
   212
  0
VERTEX
  5
26A
  8
0
 62
   253
 10
0.0
 20
0.0
 30
0.0
 70
   128
 71
   188
 72
   212
 73
   187
  0
VERTEX
  5
26B
  8
0
 62
   253
 10
0.0
 20
0.0
 30
0.0
 70
   128
 71
   162
 72
   186
 73
   208
  0
VERTEX
  5
26C
  8
0
 62
   253
 10
0.0
 20
0.0
 30
0.0
 70
   128
 71
   162
 72
   208
 73
   207
  0
VERTEX
  5
26D
  8
0
 62
   253
 10
0.0
 20
0.0
 30
0.0
 70
   128
 71
   209
 72
   165
 73
   204
  0
VERTEX
  5
26E
  8
0
 62
   253
 10
0.0
 20
0.0
 30
0.0
 70
   128
 71
   186
 72
   165
 73
   209
  0
VERTEX
  5
26F
  8
0
 62
   253
 10
0.0
 20
0.0
 30
0.0
 70
   128
 71
   206
 72
   164
 73
   185
  0
VERTEX
  5
270
  8
0
 62
   253
 10
0.0
 20
0.0
 30
0.0
 70
   128
 71
   204
 72
   164
 73
   206
  0
VERTEX
  5
271
  8
0
 62
   253
 10
0.0
 20
0.0
 30
0.0
 70
   128
 71
   201
 72
   205
 73
   166
  0
VERTEX
  5
272
  8
0
 62
   253
 10
0.0
 20
0.0
 30
0.0
 70
   128
 71
   205
 72
   185
 73
   166
  0
VERTEX
  5
273
  8
0
 62
   253
 10
0.0
 20
0.0
 30
0.0
 70
   128
 71
   175
 72
   202
 73
   184
  0
VERTEX
  5
274
  8
0
 62
   253
 10
0.0
 20
0.0
 30
0.0
 70
   128
 71
   184
 72
   201
 73
   166
  0
VERTEX
  5
275
  8
0
 62
   253
 10
0.0
 20
0.0
 30
0.0
 70
   128
 71
   174
 72
   226
 73
   203
  0
VERTEX
  5
276
  8
0
 62
   253
 10
0.0
 20
0.0
 30
0.0
 70
   128
 71
   175
 72
   203
 73
   202
  0
VERTEX
  5
277
  8
0
 62
   253
 10
0.0
 20
0.0
 30
0.0
 70
   128
 71
   198
 72
   226
 73
   183
  0
VERTEX
  5
278
  8
0
 62
   253
 10
0.0
 20
0.0
 30
0.0
 70
   128
 71
   174
 72
   183
 73
   226
  0
VERTEX
  5
279
  8
0
 62
   253
 10
0.0
 20
0.0
 30
0.0
 70
   128
 71
   200
 72
   170
 73
   181
  0
VERTEX
  5
27A
  8
0
 62
   253
 10
0.0
 20
0.0
 30
0.0
 70
   128
 71
   198
 72
   170
 73
   200
  0
VERTEX
  5
27B
  8
0
 62
   253
 10
0.0
 20
0.0
 30
0.0
 70
   128
 71
   195
 72
   199
 73
   182
  0
VERTEX
  5
27C
  8
0
 62
   253
 10
0.0
 20
0.0
 30
0.0
 70
   128
 71
   199
 72
   181
 73
   182
  0
VERTEX
  5
27D
  8
0
 62
   253
 10
0.0
 20
0.0
 30
0.0
 70
   128
 71
   179
 72
   196
 73
   173
  0
VERTEX
  5
27E
  8
0
 62
   253
 10
0.0
 20
0.0
 30
0.0
 70
   128
 71
   173
 72
   195
 73
   182
  0
VERTEX
  5
27F
  8
0
 62
   253
 10
0.0
 20
0.0
 30
0.0
 70
   128
 71
   178
 72
   197
 73
   180
  0
VERTEX
  5
280
  8
0
 62
   253
 10
0.0
 20
0.0
 30
0.0
 70
   128
 71
   179
 72
   197
 73
   196
  0
VERTEX
  5
281
  8
0
 62
   253
 10
0.0
 20
0.0
 30
0.0
 70
   128
 71
   194
 72
   178
 73
   111
  0
VERTEX
  5
282
  8
0
 62
   253
 10
0.0
 20
0.0
 30
0.0
 70
   128
 71
   178
 72
   194
 73
   197
  0
VERTEX
  5
283
  8
0
 62
   253
 10
0.0
 20
0.0
 30
0.0
 70
   128
 71
   203
 72
   228
 73
   227
  0
VERTEX
  5
284
  8
0
 62
   253
 10
0.0
 20
0.0
 30
0.0
 70
   128
 71
    71
 72
   125
 73
    72
  0
VERTEX
  5
285
  8
0
 62
   253
 10
0.0
 20
0.0
 30
0.0
 70
   128
 71
    98
 72
    66
 73
    67
  0
VERTEX
  5
286
  8
0
 62
   253
 10
0.0
 20
0.0
 30
0.0
 70
   128
 71
   230
 72
   229
 73
   195
  0
VERTEX
  5
287
  8
0
 62
   253
 10
0.0
 20
0.0
 30
0.0
 70
   128
 71
   104
 72
    67
 73
    68
  0
VERTEX
  5
288
  8
0
 62
   253
 10
0.0
 20
0.0
 30
0.0
 70
   128
 71
    92
 72
    65
 73
    94
  0
VERTEX
  5
289
  8
0
 62
   253
 10
0.0
 20
0.0
 30
0.0
 70
   128
 71
   229
 72
   198
 73
   200
  0
VERTEX
  5
28A
  8
0
 62
   253
 10
0.0
 20
0.0
 30
0.0
 70
   128
 71
    65
 72
    88
 73
    64
  0
VERTEX
  5
28B
  8
0
 62
   253
 10
0.0
 20
0.0
 30
0.0
 70
   128
 71
    62
 72
    63
 73
    76
  0
VERTEX
  5
28C
  8
0
 62
   253
 10
0.0
 20
0.0
 30
0.0
 70
   128
 71
   201
 72
   227
 73
   205
  0
VERTEX
  5
28D
  8
0
 62
   253
 10
0.0
 20
0.0
 30
0.0
 70
   128
 71
    70
 72
    62
 73
   116
  0
VERTEX
  5
28E
  8
0
 62
   253
 10
0.0
 20
0.0
 30
0.0
 70
   128
 71
   204
 72
   232
 73
   231
  0
VERTEX
  5
28F
  8
0
 62
   253
 10
0.0
 20
0.0
 30
0.0
 70
   128
 71
   119
 72
   122
 73
    71
  0
VERTEX
  5
290
  8
0
 62
   253
 10
0.0
 20
0.0
 30
0.0
 70
   128
 71
   231
 72
   233
 73
   207
  0
VERTEX
  5
291
  8
0
 62
   253
 10
0.0
 20
0.0
 30
0.0
 70
   128
 71
   211
 72
   233
 73
   210
  0
VERTEX
  5
292
  8
0
 62
   253
 10
0.0
 20
0.0
 30
0.0
 70
   128
 71
    73
 72
   129
 73
   131
  0
VERTEX
  5
293
  8
0
 62
   253
 10
0.0
 20
0.0
 30
0.0
 70
   128
 71
   235
 72
   234
 73
   214
  0
VERTEX
  5
294
  8
0
 62
   253
 10
0.0
 20
0.0
 30
0.0
 70
   128
 71
   135
 72
    74
 73
    73
  0
VERTEX
  5
295
  8
0
 62
   253
 10
0.0
 20
0.0
 30
0.0
 70
   128
 71
   237
 72
   219
 73
   236
  0
VERTEX
  5
296
  8
0
 62
   253
 10
0.0
 20
0.0
 30
0.0
 70
   128
 71
   222
 72
   237
 73
   238
  0
VERTEX
  5
297
  8
0
 62
   253
 10
0.0
 20
0.0
 30
0.0
 70
   128
 71
   143
 72
    75
 73
    74
  0
VERTEX
  5
298
  8
0
 62
   253
 10
0.0
 20
0.0
 30
0.0
 70
   128
 71
   217
 72
   234
 73
   216
  0
VERTEX
  5
299
  8
0
 62
   253
 10
0.0
 20
0.0
 30
0.0
 70
   128
 71
    63
 72
    83
 73
    82
  0
VERTEX
  5
29A
  8
0
 62
   253
 10
0.0
 20
0.0
 30
0.0
 70
   128
 71
   194
 72
   230
 73
   197
  0
VERTEX
  5
29B
  8
0
 62
   253
 10
0.0
 20
0.0
 30
0.0
 70
   128
 71
    69
 72
   107
 73
    68
  0
VERTEX
  5
29C
  8
0
 62
   253
 10
0.0
 20
0.0
 30
0.0
 70
   128
 71
   110
 72
   107
 73
    69
  0
VERTEX
  5
29D
  8
0
 62
   253
 10
0.0
 20
0.0
 30
0.0
 70
   128
 71
    68
 72
   108
 73
   106
  0
VERTEX
  5
29E
  8
0
 62
   253
 10
0.0
 20
0.0
 30
0.0
 70
   128
 71
   107
 72
   108
 73
    68
  0
VERTEX
  5
29F
  8
0
 62
   253
 10
0.0
 20
0.0
 30
0.0
 70
   128
 71
   106
 72
   104
 73
    68
  0
VERTEX
  5
2A0
  8
0
 62
   253
 10
0.0
 20
0.0
 30
0.0
 70
   128
 71
    67
 72
   101
 73
   100
  0
VERTEX
  5
2A1
  8
0
 62
   253
 10
0.0
 20
0.0
 30
0.0
 70
   128
 71
   104
 72
   101
 73
    67
  0
VERTEX
  5
2A2
  8
0
 62
   253
 10
0.0
 20
0.0
 30
0.0
 70
   128
 71
   100
 72
    98
 73
    67
  0
VERTEX
  5
2A3
  8
0
 62
   253
 10
0.0
 20
0.0
 30
0.0
 70
   128
 71
    66
 72
    95
 73
    94
  0
VERTEX
  5
2A4
  8
0
 62
   253
 10
0.0
 20
0.0
 30
0.0
 70
   128
 71
    98
 72
    95
 73
    66
  0
VERTEX
  5
2A5
  8
0
 62
   253
 10
0.0
 20
0.0
 30
0.0
 70
   128
 71
    66
 72
    94
 73
    65
  0
VERTEX
  5
2A6
  8
0
 62
   253
 10
0.0
 20
0.0
 30
0.0
 70
   128
 71
    89
 72
    88
 73
    65
  0
VERTEX
  5
2A7
  8
0
 62
   253
 10
0.0
 20
0.0
 30
0.0
 70
   128
 71
    92
 72
    89
 73
    65
  0
VERTEX
  5
2A8
  8
0
 62
   253
 10
0.0
 20
0.0
 30
0.0
 70
   128
 71
    64
 72
    86
 73
    83
  0
VERTEX
  5
2A9
  8
0
 62
   253
 10
0.0
 20
0.0
 30
0.0
 70
   128
 71
    88
 72
    86
 73
    64
  0
VERTEX
  5
2AA
  8
0
 62
   253
 10
0.0
 20
0.0
 30
0.0
 70
   128
 71
    64
 72
    83
 73
    63
  0
VERTEX
  5
2AB
  8
0
 62
   253
 10
0.0
 20
0.0
 30
0.0
 70
   128
 71
    80
 72
    76
 73
    63
  0
VERTEX
  5
2AC
  8
0
 62
   253
 10
0.0
 20
0.0
 30
0.0
 70
   128
 71
    82
 72
    80
 73
    63
  0
VERTEX
  5
2AD
  8
0
 62
   253
 10
0.0
 20
0.0
 30
0.0
 70
   128
 71
    62
 72
   112
 73
   113
  0
VERTEX
  5
2AE
  8
0
 62
   253
 10
0.0
 20
0.0
 30
0.0
 70
   128
 71
    76
 72
   112
 73
    62
  0
VERTEX
  5
2AF
  8
0
 62
   253
 10
0.0
 20
0.0
 30
0.0
 70
   128
 71
   113
 72
   116
 73
    62
  0
VERTEX
  5
2B0
  8
0
 62
   253
 10
0.0
 20
0.0
 30
0.0
 70
   128
 71
    70
 72
   117
 73
   119
  0
VERTEX
  5
2B1
  8
0
 62
   253
 10
0.0
 20
0.0
 30
0.0
 70
   128
 71
   116
 72
   117
 73
    70
  0
VERTEX
  5
2B2
  8
0
 62
   253
 10
0.0
 20
0.0
 30
0.0
 70
   128
 71
    70
 72
   119
 73
    71
  0
VERTEX
  5
2B3
  8
0
 62
   253
 10
0.0
 20
0.0
 30
0.0
 70
   128
 71
   123
 72
   125
 73
    71
  0
VERTEX
  5
2B4
  8
0
 62
   253
 10
0.0
 20
0.0
 30
0.0
 70
   128
 71
   122
 72
   123
 73
    71
  0
VERTEX
  5
2B5
  8
0
 62
   253
 10
0.0
 20
0.0
 30
0.0
 70
   128
 71
    72
 72
   128
 73
   129
  0
VERTEX
  5
2B6
  8
0
 62
   253
 10
0.0
 20
0.0
 30
0.0
 70
   128
 71
   125
 72
   128
 73
    72
  0
VERTEX
  5
2B7
  8
0
 62
   253
 10
0.0
 20
0.0
 30
0.0
 70
   128
 71
    72
 72
   129
 73
    73
  0
VERTEX
  5
2B8
  8
0
 62
   253
 10
0.0
 20
0.0
 30
0.0
 70
   128
 71
   134
 72
   135
 73
    73
  0
VERTEX
  5
2B9
  8
0
 62
   253
 10
0.0
 20
0.0
 30
0.0
 70
   128
 71
   131
 72
   134
 73
    73
  0
VERTEX
  5
2BA
  8
0
 62
   253
 10
0.0
 20
0.0
 30
0.0
 70
   128
 71
    74
 72
   137
 73
   140
  0
VERTEX
  5
2BB
  8
0
 62
   253
 10
0.0
 20
0.0
 30
0.0
 70
   128
 71
   135
 72
   137
 73
    74
  0
VERTEX
  5
2BC
  8
0
 62
   253
 10
0.0
 20
0.0
 30
0.0
 70
   128
 71
   140
 72
   143
 73
    74
  0
VERTEX
  5
2BD
  8
0
 62
   253
 10
0.0
 20
0.0
 30
0.0
 70
   128
 71
   143
 72
   145
 73
    75
  0
VERTEX
  5
2BE
  8
0
 62
   253
 10
0.0
 20
0.0
 30
0.0
 70
   128
 71
    75
 72
   224
 73
   238
  0
VERTEX
  5
2BF
  8
0
 62
   253
 10
0.0
 20
0.0
 30
0.0
 70
   128
 71
   145
 72
   224
 73
    75
  0
VERTEX
  5
2C0
  8
0
 62
   253
 10
0.0
 20
0.0
 30
0.0
 70
   128
 71
   238
 72
   225
 73
   223
  0
VERTEX
  5
2C1
  8
0
 62
   253
 10
0.0
 20
0.0
 30
0.0
 70
   128
 71
   224
 72
   225
 73
   238
  0
VERTEX
  5
2C2
  8
0
 62
   253
 10
0.0
 20
0.0
 30
0.0
 70
   128
 71
   223
 72
   222
 73
   238
  0
VERTEX
  5
2C3
  8
0
 62
   253
 10
0.0
 20
0.0
 30
0.0
 70
   128
 71
   237
 72
   221
 73
   220
  0
VERTEX
  5
2C4
  8
0
 62
   253
 10
0.0
 20
0.0
 30
0.0
 70
   128
 71
   222
 72
   221
 73
   237
  0
VERTEX
  5
2C5
  8
0
 62
   253
 10
0.0
 20
0.0
 30
0.0
 70
   128
 71
   220
 72
   219
 73
   237
  0
VERTEX
  5
2C6
  8
0
 62
   253
 10
0.0
 20
0.0
 30
0.0
 70
   128
 71
   236
 72
   218
 73
   216
  0
VERTEX
  5
2C7
  8
0
 62
   253
 10
0.0
 20
0.0
 30
0.0
 70
   128
 71
   219
 72
   218
 73
   236
  0
VERTEX
  5
2C8
  8
0
 62
   253
 10
0.0
 20
0.0
 30
0.0
 70
   128
 71
   236
 72
   216
 73
   234
  0
VERTEX
  5
2C9
  8
0
 62
   253
 10
0.0
 20
0.0
 30
0.0
 70
   128
 71
   213
 72
   214
 73
   234
  0
VERTEX
  5
2CA
  8
0
 62
   253
 10
0.0
 20
0.0
 30
0.0
 70
   128
 71
   217
 72
   213
 73
   234
  0
VERTEX
  5
2CB
  8
0
 62
   253
 10
0.0
 20
0.0
 30
0.0
 70
   128
 71
   235
 72
   215
 73
   210
  0
VERTEX
  5
2CC
  8
0
 62
   253
 10
0.0
 20
0.0
 30
0.0
 70
   128
 71
   214
 72
   215
 73
   235
  0
VERTEX
  5
2CD
  8
0
 62
   253
 10
0.0
 20
0.0
 30
0.0
 70
   128
 71
   235
 72
   210
 73
   233
  0
VERTEX
  5
2CE
  8
0
 62
   253
 10
0.0
 20
0.0
 30
0.0
 70
   128
 71
   212
 72
   207
 73
   233
  0
VERTEX
  5
2CF
  8
0
 62
   253
 10
0.0
 20
0.0
 30
0.0
 70
   128
 71
   211
 72
   212
 73
   233
  0
VERTEX
  5
2D0
  8
0
 62
   253
 10
0.0
 20
0.0
 30
0.0
 70
   128
 71
   231
 72
   208
 73
   209
  0
VERTEX
  5
2D1
  8
0
 62
   253
 10
0.0
 20
0.0
 30
0.0
 70
   128
 71
   207
 72
   208
 73
   231
  0
VERTEX
  5
2D2
  8
0
 62
   253
 10
0.0
 20
0.0
 30
0.0
 70
   128
 71
   209
 72
   204
 73
   231
  0
VERTEX
  5
2D3
  8
0
 62
   253
 10
0.0
 20
0.0
 30
0.0
 70
   128
 71
   232
 72
   206
 73
   205
  0
VERTEX
  5
2D4
  8
0
 62
   253
 10
0.0
 20
0.0
 30
0.0
 70
   128
 71
   204
 72
   206
 73
   232
  0
VERTEX
  5
2D5
  8
0
 62
   253
 10
0.0
 20
0.0
 30
0.0
 70
   128
 71
   232
 72
   205
 73
   227
  0
VERTEX
  5
2D6
  8
0
 62
   253
 10
0.0
 20
0.0
 30
0.0
 70
   128
 71
   202
 72
   203
 73
   227
  0
VERTEX
  5
2D7
  8
0
 62
   253
 10
0.0
 20
0.0
 30
0.0
 70
   128
 71
   201
 72
   202
 73
   227
  0
VERTEX
  5
2D8
  8
0
 62
   253
 10
0.0
 20
0.0
 30
0.0
 70
   128
 71
   228
 72
   226
 73
   198
  0
VERTEX
  5
2D9
  8
0
 62
   253
 10
0.0
 20
0.0
 30
0.0
 70
   128
 71
   203
 72
   226
 73
   228
  0
VERTEX
  5
2DA
  8
0
 62
   253
 10
0.0
 20
0.0
 30
0.0
 70
   128
 71
   228
 72
   198
 73
   229
  0
VERTEX
  5
2DB
  8
0
 62
   253
 10
0.0
 20
0.0
 30
0.0
 70
   128
 71
   199
 72
   195
 73
   229
  0
VERTEX
  5
2DC
  8
0
 62
   253
 10
0.0
 20
0.0
 30
0.0
 70
   128
 71
   200
 72
   199
 73
   229
  0
VERTEX
  5
2DD
  8
0
 62
   253
 10
0.0
 20
0.0
 30
0.0
 70
   128
 71
   230
 72
   196
 73
   197
  0
VERTEX
  5
2DE
  8
0
 62
   253
 10
0.0
 20
0.0
 30
0.0
 70
   128
 71
   195
 72
   196
 73
   230
  0
VERTEX
  5
2DF
  8
0
 62
   253
 10
0.0
 20
0.0
 30
0.0
 70
   128
 71
   194
 72
    69
 73
   230
  0
VERTEX
  5
2E0
  8
0
 62
   253
 10
0.0
 20
0.0
 30
0.0
 70
   128
 71
    69
 72
   194
 73
   110
  0
VERTEX
  5
2E1
  8
0
 62
   253
 10
0.0
 20
0.0
 30
0.0
 70
   128
 71
    69
 72
    12
 73
    11
  0
VERTEX
  5
2E2
  8
0
 62
   253
 10
0.0
 20
0.0
 30
0.0
 70
   128
 71
   228
 72
     7
 73
   227
  0
VERTEX
  5
2E3
  8
0
 62
   253
 10
0.0
 20
0.0
 30
0.0
 70
   128
 71
   229
 72
     8
 73
     9
  0
VERTEX
  5
2E4
  8
0
 62
   253
 10
0.0
 20
0.0
 30
0.0
 70
   128
 71
     5
 72
   233
 73
   231
  0
VERTEX
  5
2E5
  8
0
 62
   253
 10
0.0
 20
0.0
 30
0.0
 70
   128
 71
     3
 72
   232
 73
     4
  0
VERTEX
  5
2E6
  8
0
 62
   253
 10
0.0
 20
0.0
 30
0.0
 70
   128
 71
   240
 72
   234
 73
   239
  0
VERTEX
  5
2E7
  8
0
 62
   253
 10
0.0
 20
0.0
 30
0.0
 70
   128
 71
   235
 72
   241
 73
   239
  0
VERTEX
  5
2E8
  8
0
 62
   253
 10
0.0
 20
0.0
 30
0.0
 70
   128
 71
   242
 72
   237
 73
   236
  0
VERTEX
  5
2E9
  8
0
 62
   253
 10
0.0
 20
0.0
 30
0.0
 70
   128
 71
   236
 72
   240
 73
   242
  0
VERTEX
  5
2EA
  8
0
 62
   253
 10
0.0
 20
0.0
 30
0.0
 70
   128
 71
   237
 72
   243
 73
   238
  0
VERTEX
  5
2EB
  8
0
 62
   253
 10
0.0
 20
0.0
 30
0.0
 70
   128
 71
   243
 72
   237
 73
   242
  0
VERTEX
  5
2EC
  8
0
 62
   253
 10
0.0
 20
0.0
 30
0.0
 70
   128
 71
    75
 72
   238
 73
   244
  0
VERTEX
  5
2ED
  8
0
 62
   253
 10
0.0
 20
0.0
 30
0.0
 70
   128
 71
   243
 72
   244
 73
   238
  0
VERTEX
  5
2EE
  8
0
 62
   253
 10
0.0
 20
0.0
 30
0.0
 70
   128
 71
    75
 72
   244
 73
    33
  0
VERTEX
  5
2EF
  8
0
 62
   253
 10
0.0
 20
0.0
 30
0.0
 70
   128
 71
   239
 72
   234
 73
   235
  0
VERTEX
  5
2F0
  8
0
 62
   253
 10
0.0
 20
0.0
 30
0.0
 70
   128
 71
   236
 72
   234
 73
   240
  0
VERTEX
  5
2F1
  8
0
 62
   253
 10
0.0
 20
0.0
 30
0.0
 70
   128
 71
   241
 72
   233
 73
     5
  0
VERTEX
  5
2F2
  8
0
 62
   253
 10
0.0
 20
0.0
 30
0.0
 70
   128
 71
   235
 72
   233
 73
   241
  0
VERTEX
  5
2F3
  8
0
 62
   253
 10
0.0
 20
0.0
 30
0.0
 70
   128
 71
     3
 72
   231
 73
   232
  0
VERTEX
  5
2F4
  8
0
 62
   253
 10
0.0
 20
0.0
 30
0.0
 70
   128
 71
     5
 72
   231
 73
     3
  0
VERTEX
  5
2F5
  8
0
 62
   253
 10
0.0
 20
0.0
 30
0.0
 70
   128
 71
     7
 72
     4
 73
   227
  0
VERTEX
  5
2F6
  8
0
 62
   253
 10
0.0
 20
0.0
 30
0.0
 70
   128
 71
     4
 72
   232
 73
   227
  0
VERTEX
  5
2F7
  8
0
 62
   253
 10
0.0
 20
0.0
 30
0.0
 70
   128
 71
   229
 72
     9
 73
   228
  0
VERTEX
  5
2F8
  8
0
 62
   253
 10
0.0
 20
0.0
 30
0.0
 70
   128
 71
     9
 72
     7
 73
   228
  0
VERTEX
  5
2F9
  8
0
 62
   253
 10
0.0
 20
0.0
 30
0.0
 70
   128
 71
   230
 72
    11
 73
     8
  0
VERTEX
  5
2FA
  8
0
 62
   253
 10
0.0
 20
0.0
 30
0.0
 70
   128
 71
   230
 72
     8
 73
   229
  0
VERTEX
  5
2FB
  8
0
 62
   253
 10
0.0
 20
0.0
 30
0.0
 70
   128
 71
    11
 72
   230
 73
    69
  0
VERTEX
  5
2FC
  8
0
 62
   253
 10
0.0
 20
0.0
 30
0.0
 70
   128
 71
    48
 72
   172
 73
   245
  0
VERTEX
  5
2FD
  8
0
 62
   253
 10
0.0
 20
0.0
 30
0.0
 70
   128
 71
   247
 72
   167
 73
   246
  0
VERTEX
  5
2FE
  8
0
 62
   253
 10
0.0
 20
0.0
 30
0.0
 70
   128
 71
   249
 72
   248
 73
   171
  0
VERTEX
  5
2FF
  8
0
 62
   253
 10
0.0
 20
0.0
 30
0.0
 70
   128
 71
   159
 72
   251
 73
   250
  0
VERTEX
  5
300
  8
0
 62
   253
 10
0.0
 20
0.0
 30
0.0
 70
   128
 71
   163
 72
   252
 73
   168
  0
VERTEX
  5
301
  8
0
 62
   253
 10
0.0
 20
0.0
 30
0.0
 70
   128
 71
   149
 72
   254
 73
   253
  0
VERTEX
  5
302
  8
0
 62
   253
 10
0.0
 20
0.0
 30
0.0
 70
   128
 71
   253
 72
   251
 73
   160
  0
VERTEX
  5
303
  8
0
 62
   253
 10
0.0
 20
0.0
 30
0.0
 70
   128
 71
   150
 72
   153
 73
   255
  0
VERTEX
  5
304
  8
0
 62
   253
 10
0.0
 20
0.0
 30
0.0
 70
   128
 71
   255
 72
   254
 73
   150
  0
VERTEX
  5
305
  8
0
 62
   253
 10
0.0
 20
0.0
 30
0.0
 70
   128
 71
   256
 72
   153
 73
   154
  0
VERTEX
  5
306
  8
0
 62
   253
 10
0.0
 20
0.0
 30
0.0
 70
   128
 71
   153
 72
   256
 73
   255
  0
VERTEX
  5
307
  8
0
 62
   253
 10
0.0
 20
0.0
 30
0.0
 70
   128
 71
    60
 72
    61
 73
   154
  0
VERTEX
  5
308
  8
0
 62
   253
 10
0.0
 20
0.0
 30
0.0
 70
   128
 71
   256
 72
   154
 73
    61
  0
VERTEX
  5
309
  8
0
 62
   253
 10
0.0
 20
0.0
 30
0.0
 70
   128
 71
   253
 72
   160
 73
   149
  0
VERTEX
  5
30A
  8
0
 62
   253
 10
0.0
 20
0.0
 30
0.0
 70
   128
 71
   150
 72
   254
 73
   149
  0
VERTEX
  5
30B
  8
0
 62
   253
 10
0.0
 20
0.0
 30
0.0
 70
   128
 71
   250
 72
   163
 73
   159
  0
VERTEX
  5
30C
  8
0
 62
   253
 10
0.0
 20
0.0
 30
0.0
 70
   128
 71
   160
 72
   251
 73
   159
  0
VERTEX
  5
30D
  8
0
 62
   253
 10
0.0
 20
0.0
 30
0.0
 70
   128
 71
   168
 72
   252
 73
   246
  0
VERTEX
  5
30E
  8
0
 62
   253
 10
0.0
 20
0.0
 30
0.0
 70
   128
 71
   163
 72
   250
 73
   252
  0
VERTEX
  5
30F
  8
0
 62
   253
 10
0.0
 20
0.0
 30
0.0
 70
   128
 71
   169
 72
   167
 73
   247
  0
VERTEX
  5
310
  8
0
 62
   253
 10
0.0
 20
0.0
 30
0.0
 70
   128
 71
   167
 72
   168
 73
   246
  0
VERTEX
  5
311
  8
0
 62
   253
 10
0.0
 20
0.0
 30
0.0
 70
   128
 71
   169
 72
   249
 73
   171
  0
VERTEX
  5
312
  8
0
 62
   253
 10
0.0
 20
0.0
 30
0.0
 70
   128
 71
   249
 72
   169
 73
   247
  0
VERTEX
  5
313
  8
0
 62
   253
 10
0.0
 20
0.0
 30
0.0
 70
   128
 71
   248
 72
   245
 73
   172
  0
VERTEX
  5
314
  8
0
 62
   253
 10
0.0
 20
0.0
 30
0.0
 70
   128
 71
   248
 72
   172
 73
   171
  0
VERTEX
  5
315
  8
0
 62
   253
 10
0.0
 20
0.0
 30
0.0
 70
   128
 71
   245
 72
    47
 73
    48
  0
VERTEX
  5
316
  8
0
 62
   253
 10
0.0
 20
0.0
 30
0.0
 70
   128
 71
     1
 72
   146
 73
   241
  0
VERTEX
  5
317
  8
0
 62
   253
 10
0.0
 20
0.0
 30
0.0
 70
   128
 71
   242
 72
   148
 73
   147
  0
VERTEX
  5
318
  8
0
 62
   253
 10
0.0
 20
0.0
 30
0.0
 70
   128
 71
   244
 72
    31
 73
    33
  0
VERTEX
  5
319
  8
0
 62
   253
 10
0.0
 20
0.0
 30
0.0
 70
   128
 71
   244
 72
   147
 73
    31
  0
VERTEX
  5
31A
  8
0
 62
   253
 10
0.0
 20
0.0
 30
0.0
 70
   128
 71
   240
 72
   148
 73
   242
  0
VERTEX
  5
31B
  8
0
 62
   253
 10
0.0
 20
0.0
 30
0.0
 70
   128
 71
   242
 72
   147
 73
   243
  0
VERTEX
  5
31C
  8
0
 62
   253
 10
0.0
 20
0.0
 30
0.0
 70
   128
 71
   243
 72
   147
 73
   244
  0
VERTEX
  5
31D
  8
0
 62
   253
 10
0.0
 20
0.0
 30
0.0
 70
   128
 71
   240
 72
   239
 73
   146
  0
VERTEX
  5
31E
  8
0
 62
   253
 10
0.0
 20
0.0
 30
0.0
 70
   128
 71
   240
 72
   146
 73
   148
  0
VERTEX
  5
31F
  8
0
 62
   253
 10
0.0
 20
0.0
 30
0.0
 70
   128
 71
   241
 72
     5
 73
     1
  0
VERTEX
  5
320
  8
0
 62
   253
 10
0.0
 20
0.0
 30
0.0
 70
   128
 71
   239
 72
   241
 73
   146
  0
SEQEND
  5
321
  8
0
 62
   253
  0
ENDBLK
  5
325
  8
0
  0
BLOCK
  8
0
  2
39
 70
     0
 10
0.0
 20
0.0
 30
0.0
  3
39
  1

  0
POLYLINE
  5
327
  8
0
 62
     9
 66
     1
 10
0.0
 20
0.0
 30
0.0
 70
    64
 71
   168
 72
   252
  0
VERTEX
  5
328
  8
0
 10
29.61662101745605
 20
182.2218933105469
 30
31.28235054016113
 70
   192
  0
VERTEX
  5
329
  8
0
 10
29.61695861816406
 20
177.7831268310547
 30
32.59988784790039
 70
   192
  0
VERTEX
  5
32A
  8
0
 10
29.61695861816406
 20
177.7831268310547
 30
31.28235054016113
 70
   192
  0
VERTEX
  5
32B
  8
0
 10
28.95446968078613
 20
186.6096954345703
 30
32.59988784790039
 70
   192
  0
VERTEX
  5
32C
  8
0
 10
27.64391708374023
 20
190.8537292480469
 30
31.28235054016113
 70
   192
  0
VERTEX
  5
32D
  8
0
 10
27.64391708374023
 20
190.8537292480469
 30
32.59988784790039
 70
   192
  0
VERTEX
  5
32E
  8
0
 10
29.61662101745605
 20
182.2218933105469
 30
32.59988784790039
 70
   192
  0
VERTEX
  5
32F
  8
0
 10
28.95446968078613
 20
186.6096954345703
 30
31.28235054016113
 70
   192
  0
VERTEX
  5
330
  8
0
 10
25.7171745300293
 20
194.8519592285156
 30
31.28235054016113
 70
   192
  0
VERTEX
  5
331
  8
0
 10
23.21756172180176
 20
198.5171203613281
 30
31.28235054016113
 70
   192
  0
VERTEX
  5
332
  8
0
 10
23.21756172180176
 20
198.5171203613281
 30
32.59988784790039
 70
   192
  0
VERTEX
  5
333
  8
0
 10
25.7171745300293
 20
194.8519592285156
 30
32.59988784790039
 70
   192
  0
VERTEX
  5
334
  8
0
 10
20.19682884216309
 20
201.7721862792969
 30
31.28235054016113
 70
   192
  0
VERTEX
  5
335
  8
0
 10
16.72789001464844
 20
204.5394134521484
 30
31.28235054016113
 70
   192
  0
VERTEX
  5
336
  8
0
 10
20.19682884216309
 20
201.7721862792969
 30
32.59988784790039
 70
   192
  0
VERTEX
  5
337
  8
0
 10
16.72789001464844
 20
204.5394134521484
 30
32.59988784790039
 70
   192
  0
VERTEX
  5
338
  8
0
 10
12.88708972930908
 20
206.7577056884766
 30
31.28235054016113
 70
   192
  0
VERTEX
  5
339
  8
0
 10
12.88708972930908
 20
206.7577056884766
 30
32.59988784790039
 70
   192
  0
VERTEX
  5
33A
  8
0
 10
8.747469902038574
 20
208.35986328125
 30
31.28235054016113
 70
   192
  0
VERTEX
  5
33B
  8
0
 10
8.747469902038574
 20
208.35986328125
 30
32.59988784790039
 70
   192
  0
VERTEX
  5
33C
  8
0
 10
4.425387859344482
 20
209.369873046875
 30
31.28235054016113
 70
   192
  0
VERTEX
  5
33D
  8
0
 10
-0.000000000000018
 20
209.6999969482422
 30
32.59988784790039
 70
   192
  0
VERTEX
  5
33E
  8
0
 10
4.425387859344482
 20
209.369873046875
 30
32.59988784790039
 70
   192
  0
VERTEX
  5
33F
  8
0
 10
-0.0000000000000177
 20
209.6999969482422
 30
31.28235054016113
 70
   192
  0
VERTEX
  5
340
  8
0
 10
28.9556884765625
 20
173.3912200927734
 30
32.59988784790039
 70
   192
  0
VERTEX
  5
341
  8
0
 10
27.64878845214844
 20
169.1509399414062
 30
32.59988784790039
 70
   192
  0
VERTEX
  5
342
  8
0
 10
28.9556884765625
 20
173.3912200927734
 30
31.28235054016113
 70
   192
  0
VERTEX
  5
343
  8
0
 10
27.64878845214844
 20
169.1509399414062
 30
31.28235054016113
 70
   192
  0
VERTEX
  5
344
  8
0
 10
25.72380447387695
 20
165.1512756347656
 30
32.59988784790039
 70
   192
  0
VERTEX
  5
345
  8
0
 10
23.22228813171387
 20
161.4807891845703
 30
32.59988784790039
 70
   192
  0
VERTEX
  5
346
  8
0
 10
25.72380447387695
 20
165.1512756347656
 30
31.28235054016113
 70
   192
  0
VERTEX
  5
347
  8
0
 10
20.20450210571289
 20
158.2279968261719
 30
32.59988784790039
 70
   192
  0
VERTEX
  5
348
  8
0
 10
23.22228813171387
 20
161.4807891845703
 30
31.28235054016113
 70
   192
  0
VERTEX
  5
349
  8
0
 10
20.20450210571289
 20
158.2279968261719
 30
31.28235054016113
 70
   192
  0
VERTEX
  5
34A
  8
0
 10
16.73423385620117
 20
155.4608764648438
 30
32.59988784790039
 70
   192
  0
VERTEX
  5
34B
  8
0
 10
12.88759803771973
 20
153.2414398193359
 30
32.59988784790039
 70
   192
  0
VERTEX
  5
34C
  8
0
 10
16.73423385620117
 20
155.4608764648438
 30
31.28235054016113
 70
   192
  0
VERTEX
  5
34D
  8
0
 10
8.755125999450684
 20
151.6367797851562
 30
32.59988784790039
 70
   192
  0
VERTEX
  5
34E
  8
0
 10
12.88759803771973
 20
153.2414398193359
 30
31.28235054016113
 70
   192
  0
VERTEX
  5
34F
  8
0
 10
8.755125999450684
 20
151.6367797851562
 30
31.28235054016113
 70
   192
  0
VERTEX
  5
350
  8
0
 10
4.421938419342041
 20
150.6734771728516
 30
32.59988784790039
 70
   192
  0
VERTEX
  5
351
  8
0
 10
-0.0000000000000107
 20
150.3000030517578
 30
32.59988784790039
 70
   192
  0
VERTEX
  5
352
  8
0
 10
4.421938419342041
 20
150.6734771728516
 30
31.28235054016113
 70
   192
  0
VERTEX
  5
353
  8
0
 10
-0.0000000000000104
 20
150.3000030517578
 30
31.28235054016113
 70
   192
  0
VERTEX
  5
354
  8
0
 10
-32.30900573730469
 20
182.4235534667969
 30
31.78235054016113
 70
   192
  0
VERTEX
  5
355
  8
0
 10
-32.30937194824219
 20
177.5809173583984
 30
30.38235092163086
 70
   192
  0
VERTEX
  5
356
  8
0
 10
-32.30900573730469
 20
182.4235534667969
 30
30.38235092163086
 70
   192
  0
VERTEX
  5
357
  8
0
 10
-31.58556747436523
 20
187.2125244140625
 30
30.38235092163086
 70
   192
  0
VERTEX
  5
358
  8
0
 10
-31.58556747436523
 20
187.2125244140625
 30
31.78235054016113
 70
   192
  0
VERTEX
  5
359
  8
0
 10
-30.15621566772461
 20
191.8404083251953
 30
30.38235092163086
 70
   192
  0
VERTEX
  5
35A
  8
0
 10
-30.15621566772461
 20
191.8404083251953
 30
31.78235054016113
 70
   192
  0
VERTEX
  5
35B
  8
0
 10
-28.05550956726074
 20
196.2008514404297
 30
31.78235054016113
 70
   192
  0
VERTEX
  5
35C
  8
0
 10
-28.05550956726074
 20
196.2008514404297
 30
30.38235092163086
 70
   192
  0
VERTEX
  5
35D
  8
0
 10
-25.32649040222168
 20
200.2034454345703
 30
30.38235092163086
 70
   192
  0
VERTEX
  5
35E
  8
0
 10
-25.32649040222168
 20
200.2034454345703
 30
31.78235054016113
 70
   192
  0
VERTEX
  5
35F
  8
0
 10
-22.03407859802246
 20
203.7517547607422
 30
30.38235092163086
 70
   192
  0
VERTEX
  5
360
  8
0
 10
-22.03407859802246
 20
203.7517547607422
 30
31.78235054016113
 70
   192
  0
VERTEX
  5
361
  8
0
 10
-18.24693870544434
 20
206.7705841064453
 30
31.78235054016113
 70
   192
  0
VERTEX
  5
362
  8
0
 10
-18.24693870544434
 20
206.7705841064453
 30
30.38235092163086
 70
   192
  0
VERTEX
  5
363
  8
0
 10
-14.05393886566162
 20
209.1902313232422
 30
30.38235092163086
 70
   192
  0
VERTEX
  5
364
  8
0
 10
-14.05393886566162
 20
209.1902313232422
 30
31.78235054016113
 70
   192
  0
VERTEX
  5
365
  8
0
 10
-9.547818183898926
 20
210.96240234375
 30
30.38235092163086
 70
   192
  0
VERTEX
  5
366
  8
0
 10
-9.547818183898926
 20
210.96240234375
 30
31.78235054016113
 70
   192
  0
VERTEX
  5
367
  8
0
 10
-4.824422359466553
 20
211.9990234375
 30
31.78235054016113
 70
   192
  0
VERTEX
  5
368
  8
0
 10
-4.824422359466553
 20
211.9990234375
 30
30.38235092163086
 70
   192
  0
VERTEX
  5
369
  8
0
 10
-0.0000000000000179
 20
212.3999938964844
 30
31.78235054016113
 70
   192
  0
VERTEX
  5
36A
  8
0
 10
-0.0000000000000176
 20
212.3999938964844
 30
30.38235092163086
 70
   192
  0
VERTEX
  5
36B
  8
0
 10
-32.30937194824219
 20
177.5809173583984
 30
31.78235054016113
 70
   192
  0
VERTEX
  5
36C
  8
0
 10
-31.58838081359863
 20
172.7909545898438
 30
31.78235054016113
 70
   192
  0
VERTEX
  5
36D
  8
0
 10
-31.58838081359863
 20
172.7909545898438
 30
30.38235092163086
 70
   192
  0
VERTEX
  5
36E
  8
0
 10
-30.16222953796387
 20
168.1639556884766
 30
30.38235092163086
 70
   192
  0
VERTEX
  5
36F
  8
0
 10
-30.16222953796387
 20
168.1639556884766
 30
31.78235054016113
 70
   192
  0
VERTEX
  5
370
  8
0
 10
-28.05994033813477
 20
163.7978973388672
 30
31.78235054016113
 70
   192
  0
VERTEX
  5
371
  8
0
 10
-28.05994033813477
 20
163.7978973388672
 30
30.38235092163086
 70
   192
  0
VERTEX
  5
372
  8
0
 10
-25.33245277404785
 20
159.7984008789062
 30
31.78235054016113
 70
   192
  0
VERTEX
  5
373
  8
0
 10
-25.33245277404785
 20
159.7984008789062
 30
30.38235092163086
 70
   192
  0
VERTEX
  5
374
  8
0
 10
-22.03781318664551
 20
156.2480926513672
 30
30.38235092163086
 70
   192
  0
VERTEX
  5
375
  8
0
 10
-22.03781318664551
 20
156.2480926513672
 30
31.78235054016113
 70
   192
  0
VERTEX
  5
376
  8
0
 10
-18.25235748291016
 20
153.2288513183594
 30
31.78235054016113
 70
   192
  0
VERTEX
  5
377
  8
0
 10
-18.25235748291016
 20
153.2288513183594
 30
30.38235092163086
 70
   192
  0
VERTEX
  5
378
  8
0
 10
-14.05993175506592
 20
150.8073272705078
 30
31.78235054016113
 70
   192
  0
VERTEX
  5
379
  8
0
 10
-14.05993175506592
 20
150.8073272705078
 30
30.38235092163086
 70
   192
  0
VERTEX
  5
37A
  8
0
 10
-9.551457405090332
 20
149.0374145507812
 30
30.38235092163086
 70
   192
  0
VERTEX
  5
37B
  8
0
 10
-9.551457405090332
 20
149.0374145507812
 30
31.78235054016113
 70
   192
  0
VERTEX
  5
37C
  8
0
 10
-4.830188751220703
 20
147.9839630126953
 30
31.78235054016113
 70
   192
  0
VERTEX
  5
37D
  8
0
 10
-4.830188751220703
 20
147.9839630126953
 30
30.38235092163086
 70
   192
  0
VERTEX
  5
37E
  8
0
 10
-0.0000000000000097
 20
147.6000061035156
 30
30.38235092163086
 70
   192
  0
VERTEX
  5
37F
  8
0
 10
-0.00000000000001
 20
147.6000061035156
 30
31.78235054016113
 70
   192
  0
VERTEX
  5
380
  8
0
 10
-29.61662101745605
 20
182.2218933105469
 30
32.59988784790039
 70
   192
  0
VERTEX
  5
381
  8
0
 10
-28.95446968078613
 20
186.6096954345703
 30
32.59988784790039
 70
   192
  0
VERTEX
  5
382
  8
0
 10
-29.61695861816406
 20
177.7831268310547
 30
32.59988784790039
 70
   192
  0
VERTEX
  5
383
  8
0
 10
-27.64391708374023
 20
190.8537292480469
 30
32.59988784790039
 70
   192
  0
VERTEX
  5
384
  8
0
 10
-25.7171745300293
 20
194.8519592285156
 30
32.59988784790039
 70
   192
  0
VERTEX
  5
385
  8
0
 10
-23.21756172180176
 20
198.5171203613281
 30
32.59988784790039
 70
   192
  0
VERTEX
  5
386
  8
0
 10
-20.19682884216309
 20
201.7721862792969
 30
32.59988784790039
 70
   192
  0
VERTEX
  5
387
  8
0
 10
-8.747469902038574
 20
208.35986328125
 30
32.59988784790039
 70
   192
  0
VERTEX
  5
388
  8
0
 10
-16.72789001464844
 20
204.5394134521484
 30
32.59988784790039
 70
   192
  0
VERTEX
  5
389
  8
0
 10
-12.88708972930908
 20
206.7577056884766
 30
32.59988784790039
 70
   192
  0
VERTEX
  5
38A
  8
0
 10
-4.425387859344482
 20
209.369873046875
 30
32.59988784790039
 70
   192
  0
VERTEX
  5
38B
  8
0
 10
-28.9556884765625
 20
173.3912200927734
 30
32.59988784790039
 70
   192
  0
VERTEX
  5
38C
  8
0
 10
-27.64878845214844
 20
169.1509399414062
 30
32.59988784790039
 70
   192
  0
VERTEX
  5
38D
  8
0
 10
-25.72380447387695
 20
165.1512756347656
 30
32.59988784790039
 70
   192
  0
VERTEX
  5
38E
  8
0
 10
-23.22228813171387
 20
161.4807891845703
 30
32.59988784790039
 70
   192
  0
VERTEX
  5
38F
  8
0
 10
-20.20450210571289
 20
158.2279968261719
 30
32.59988784790039
 70
   192
  0
VERTEX
  5
390
  8
0
 10
-16.73423385620117
 20
155.4608764648438
 30
32.59988784790039
 70
   192
  0
VERTEX
  5
391
  8
0
 10
-12.88759803771973
 20
153.2414398193359
 30
32.59988784790039
 70
   192
  0
VERTEX
  5
392
  8
0
 10
-8.755125999450684
 20
151.6367797851562
 30
32.59988784790039
 70
   192
  0
VERTEX
  5
393
  8
0
 10
-4.421938419342041
 20
150.6734771728516
 30
32.59988784790039
 70
   192
  0
VERTEX
  5
394
  8
0
 10
4.824422359466553
 20
211.9990234375
 30
31.78235054016113
 70
   192
  0
VERTEX
  5
395
  8
0
 10
9.547818183898926
 20
210.96240234375
 30
31.78235054016113
 70
   192
  0
VERTEX
  5
396
  8
0
 10
14.05393886566162
 20
209.1902313232422
 30
31.78235054016113
 70
   192
  0
VERTEX
  5
397
  8
0
 10
25.32649040222168
 20
200.2034454345703
 30
31.78235054016113
 70
   192
  0
VERTEX
  5
398
  8
0
 10
18.24693870544434
 20
206.7705841064453
 30
31.78235054016113
 70
   192
  0
VERTEX
  5
399
  8
0
 10
32.30900573730469
 20
182.4235534667969
 30
31.78235054016113
 70
   192
  0
VERTEX
  5
39A
  8
0
 10
31.58556747436523
 20
187.2125244140625
 30
31.78235054016113
 70
   192
  0
VERTEX
  5
39B
  8
0
 10
30.15621566772461
 20
191.8404083251953
 30
31.78235054016113
 70
   192
  0
VERTEX
  5
39C
  8
0
 10
31.58838081359863
 20
172.7909545898438
 30
31.78235054016113
 70
   192
  0
VERTEX
  5
39D
  8
0
 10
30.16222953796387
 20
168.1639556884766
 30
31.78235054016113
 70
   192
  0
VERTEX
  5
39E
  8
0
 10
32.30937194824219
 20
177.5809173583984
 30
31.78235054016113
 70
   192
  0
VERTEX
  5
39F
  8
0
 10
28.05994033813477
 20
163.7978973388672
 30
31.78235054016113
 70
   192
  0
VERTEX
  5
3A0
  8
0
 10
25.33245277404785
 20
159.7984008789062
 30
31.78235054016113
 70
   192
  0
VERTEX
  5
3A1
  8
0
 10
22.03781318664551
 20
156.2480926513672
 30
31.78235054016113
 70
   192
  0
VERTEX
  5
3A2
  8
0
 10
18.25235748291016
 20
153.2288513183594
 30
31.78235054016113
 70
   192
  0
VERTEX
  5
3A3
  8
0
 10
14.05993175506592
 20
150.8073272705078
 30
31.78235054016113
 70
   192
  0
VERTEX
  5
3A4
  8
0
 10
9.551457405090332
 20
149.0374145507812
 30
31.78235054016113
 70
   192
  0
VERTEX
  5
3A5
  8
0
 10
4.830188751220703
 20
147.9839630126953
 30
31.78235054016113
 70
   192
  0
VERTEX
  5
3A6
  8
0
 10
28.05550956726074
 20
196.2008514404297
 30
31.78235054016113
 70
   192
  0
VERTEX
  5
3A7
  8
0
 10
22.03407859802246
 20
203.7517547607422
 30
31.78235054016113
 70
   192
  0
VERTEX
  5
3A8
  8
0
 10
18.25235748291016
 20
206.7711486816406
 30
30.38235092163086
 70
   192
  0
VERTEX
  5
3A9
  8
0
 10
14.05993175506592
 20
209.1926727294922
 30
30.38235092163086
 70
   192
  0
VERTEX
  5
3AA
  8
0
 10
9.551457405090332
 20
210.9625854492188
 30
30.38235092163086
 70
   192
  0
VERTEX
  5
3AB
  8
0
 10
28.05994033813477
 20
196.2021026611328
 30
30.38235092163086
 70
   192
  0
VERTEX
  5
3AC
  8
0
 10
22.03781318664551
 20
203.7519073486328
 30
30.38235092163086
 70
   192
  0
VERTEX
  5
3AD
  8
0
 10
25.33245277404785
 20
200.2015991210938
 30
30.38235092163086
 70
   192
  0
VERTEX
  5
3AE
  8
0
 10
32.30900573730469
 20
177.5764465332031
 30
30.38235092163086
 70
   192
  0
VERTEX
  5
3AF
  8
0
 10
32.30937194824219
 20
182.4190826416016
 30
30.38235092163086
 70
   192
  0
VERTEX
  5
3B0
  8
0
 10
31.58838081359863
 20
187.2090454101562
 30
30.38235092163086
 70
   192
  0
VERTEX
  5
3B1
  8
0
 10
30.15621566772461
 20
168.1595916748047
 30
30.38235092163086
 70
   192
  0
VERTEX
  5
3B2
  8
0
 10
31.58556747436523
 20
172.7874755859375
 30
30.38235092163086
 70
   192
  0
VERTEX
  5
3B3
  8
0
 10
25.32649040222168
 20
159.7965545654297
 30
30.38235092163086
 70
   192
  0
VERTEX
  5
3B4
  8
0
 10
28.05550956726074
 20
163.7991485595703
 30
30.38235092163086
 70
   192
  0
VERTEX
  5
3B5
  8
0
 10
18.24693870544434
 20
153.2294158935547
 30
30.38235092163086
 70
   192
  0
VERTEX
  5
3B6
  8
0
 10
22.03407859802246
 20
156.2482452392578
 30
30.38235092163086
 70
   192
  0
VERTEX
  5
3B7
  8
0
 10
14.05393886566162
 20
150.8097686767578
 30
30.38235092163086
 70
   192
  0
VERTEX
  5
3B8
  8
0
 10
9.547818183898926
 20
149.03759765625
 30
30.38235092163086
 70
   192
  0
VERTEX
  5
3B9
  8
0
 10
4.824422359466553
 20
148.0009765625
 30
30.38235092163086
 70
   192
  0
VERTEX
  5
3BA
  8
0
 10
30.16222953796387
 20
191.8360443115234
 30
30.38235092163086
 70
   192
  0
VERTEX
  5
3BB
  8
0
 10
4.830188751220703
 20
212.0160369873047
 30
30.38235092163086
 70
   192
  0
VERTEX
  5
3BC
  8
0
 10
-4.421938419342041
 20
209.3265228271484
 30
31.28235054016113
 70
   192
  0
VERTEX
  5
3BD
  8
0
 10
-16.73423385620117
 20
204.5391235351562
 30
31.28235054016113
 70
   192
  0
VERTEX
  5
3BE
  8
0
 10
-12.88759803771973
 20
206.7585601806641
 30
31.28235054016113
 70
   192
  0
VERTEX
  5
3BF
  8
0
 10
-8.755125999450684
 20
208.3632202148438
 30
31.28235054016113
 70
   192
  0
VERTEX
  5
3C0
  8
0
 10
-25.72380447387695
 20
194.8487243652344
 30
31.28235054016113
 70
   192
  0
VERTEX
  5
3C1
  8
0
 10
-27.64878845214844
 20
190.8490600585938
 30
31.28235054016113
 70
   192
  0
VERTEX
  5
3C2
  8
0
 10
-23.22228813171387
 20
198.5192108154297
 30
31.28235054016113
 70
   192
  0
VERTEX
  5
3C3
  8
0
 10
-29.61662101745605
 20
177.7781066894531
 30
31.28235054016113
 70
   192
  0
VERTEX
  5
3C4
  8
0
 10
-29.61695861816406
 20
182.2168731689453
 30
31.28235054016113
 70
   192
  0
VERTEX
  5
3C5
  8
0
 10
-28.9556884765625
 20
186.6087799072266
 30
31.28235054016113
 70
   192
  0
VERTEX
  5
3C6
  8
0
 10
-25.7171745300293
 20
165.1480407714844
 30
31.28235054016113
 70
   192
  0
VERTEX
  5
3C7
  8
0
 10
-27.64391708374023
 20
169.1462707519531
 30
31.28235054016113
 70
   192
  0
VERTEX
  5
3C8
  8
0
 10
-28.95446968078613
 20
173.3903045654297
 30
31.28235054016113
 70
   192
  0
VERTEX
  5
3C9
  8
0
 10
-20.19682884216309
 20
158.2278137207031
 30
31.28235054016113
 70
   192
  0
VERTEX
  5
3CA
  8
0
 10
-23.21756172180176
 20
161.4828796386719
 30
31.28235054016113
 70
   192
  0
VERTEX
  5
3CB
  8
0
 10
-16.72789001464844
 20
155.4605865478516
 30
31.28235054016113
 70
   192
  0
VERTEX
  5
3CC
  8
0
 10
-12.88708972930908
 20
153.2422943115234
 30
31.28235054016113
 70
   192
  0
VERTEX
  5
3CD
  8
0
 10
-8.747469902038574
 20
151.64013671875
 30
31.28235054016113
 70
   192
  0
VERTEX
  5
3CE
  8
0
 10
-4.425387859344482
 20
150.630126953125
 30
31.28235054016113
 70
   192
  0
VERTEX
  5
3CF
  8
0
 10
-20.20450210571289
 20
201.7720031738281
 30
31.28235054016113
 70
   192
  0
VERTEX
  5
3D0
  8
0
 62
     9
 10
0.0
 20
0.0
 30
0.0
 70
   128
 71
     3
 72
     2
 73
     1
  0
VERTEX
  5
3D1
  8
0
 62
     9
 10
0.0
 20
0.0
 30
0.0
 70
   128
 71
     6
 72
     5
 73
     4
  0
VERTEX
  5
3D2
  8
0
 62
     9
 10
0.0
 20
0.0
 30
0.0
 70
   128
 71
     8
 72
     1
 73
     7
  0
VERTEX
  5
3D3
  8
0
 62
     9
 10
0.0
 20
0.0
 30
0.0
 70
   128
 71
     8
 72
     7
 73
     4
  0
VERTEX
  5
3D4
  8
0
 62
     9
 10
0.0
 20
0.0
 30
0.0
 70
   128
 71
     4
 72
     5
 73
     8
  0
VERTEX
  5
3D5
  8
0
 62
     9
 10
0.0
 20
0.0
 30
0.0
 70
   128
 71
     1
 72
     2
 73
     7
  0
VERTEX
  5
3D6
  8
0
 62
     9
 10
0.0
 20
0.0
 30
0.0
 70
   128
 71
     5
 72
     6
 73
     9
  0
VERTEX
  5
3D7
  8
0
 62
     9
 10
0.0
 20
0.0
 30
0.0
 70
   128
 71
    12
 72
    11
 73
    10
  0
VERTEX
  5
3D8
  8
0
 62
     9
 10
0.0
 20
0.0
 30
0.0
 70
   128
 71
     9
 72
    12
 73
    10
  0
VERTEX
  5
3D9
  8
0
 62
     9
 10
0.0
 20
0.0
 30
0.0
 70
   128
 71
    13
 72
    10
 73
    11
  0
VERTEX
  5
3DA
  8
0
 62
     9
 10
0.0
 20
0.0
 30
0.0
 70
   128
 71
    13
 72
    15
 73
    14
  0
VERTEX
  5
3DB
  8
0
 62
     9
 10
0.0
 20
0.0
 30
0.0
 70
   128
 71
    11
 72
    15
 73
    13
  0
VERTEX
  5
3DC
  8
0
 62
     9
 10
0.0
 20
0.0
 30
0.0
 70
   128
 71
    15
 72
    16
 73
    14
  0
VERTEX
  5
3DD
  8
0
 62
     9
 10
0.0
 20
0.0
 30
0.0
 70
   128
 71
    16
 72
    17
 73
    14
  0
VERTEX
  5
3DE
  8
0
 62
     9
 10
0.0
 20
0.0
 30
0.0
 70
   128
 71
    18
 72
    17
 73
    16
  0
VERTEX
  5
3DF
  8
0
 62
     9
 10
0.0
 20
0.0
 30
0.0
 70
   128
 71
    20
 72
    19
 73
    18
  0
VERTEX
  5
3E0
  8
0
 62
     9
 10
0.0
 20
0.0
 30
0.0
 70
   128
 71
    20
 72
    21
 73
    19
  0
VERTEX
  5
3E1
  8
0
 62
     9
 10
0.0
 20
0.0
 30
0.0
 70
   128
 71
    18
 72
    19
 73
    17
  0
VERTEX
  5
3E2
  8
0
 62
     9
 10
0.0
 20
0.0
 30
0.0
 70
   128
 71
    24
 72
    23
 73
    22
  0
VERTEX
  5
3E3
  8
0
 62
     9
 10
0.0
 20
0.0
 30
0.0
 70
   128
 71
    20
 72
    23
 73
    21
  0
VERTEX
  5
3E4
  8
0
 62
     9
 10
0.0
 20
0.0
 30
0.0
 70
   128
 71
    24
 72
    21
 73
    23
  0
VERTEX
  5
3E5
  8
0
 62
     9
 10
0.0
 20
0.0
 30
0.0
 70
   128
 71
    12
 72
     9
 73
     6
  0
VERTEX
  5
3E6
  8
0
 62
     9
 10
0.0
 20
0.0
 30
0.0
 70
   128
 71
     2
 72
     3
 73
    25
  0
VERTEX
  5
3E7
  8
0
 62
     9
 10
0.0
 20
0.0
 30
0.0
 70
   128
 71
    25
 72
    27
 73
    26
  0
VERTEX
  5
3E8
  8
0
 62
     9
 10
0.0
 20
0.0
 30
0.0
 70
   128
 71
    27
 72
    25
 73
     3
  0
VERTEX
  5
3E9
  8
0
 62
     9
 10
0.0
 20
0.0
 30
0.0
 70
   128
 71
    29
 72
    26
 73
    28
  0
VERTEX
  5
3EA
  8
0
 62
     9
 10
0.0
 20
0.0
 30
0.0
 70
   128
 71
    27
 72
    28
 73
    26
  0
VERTEX
  5
3EB
  8
0
 62
     9
 10
0.0
 20
0.0
 30
0.0
 70
   128
 71
    31
 72
    30
 73
    29
  0
VERTEX
  5
3EC
  8
0
 62
     9
 10
0.0
 20
0.0
 30
0.0
 70
   128
 71
    29
 72
    28
 73
    31
  0
VERTEX
  5
3ED
  8
0
 62
     9
 10
0.0
 20
0.0
 30
0.0
 70
   128
 71
    30
 72
    33
 73
    32
  0
VERTEX
  5
3EE
  8
0
 62
     9
 10
0.0
 20
0.0
 30
0.0
 70
   128
 71
    33
 72
    30
 73
    31
  0
VERTEX
  5
3EF
  8
0
 62
     9
 10
0.0
 20
0.0
 30
0.0
 70
   128
 71
    35
 72
    32
 73
    34
  0
VERTEX
  5
3F0
  8
0
 62
     9
 10
0.0
 20
0.0
 30
0.0
 70
   128
 71
    33
 72
    34
 73
    32
  0
VERTEX
  5
3F1
  8
0
 62
     9
 10
0.0
 20
0.0
 30
0.0
 70
   128
 71
    37
 72
    36
 73
    35
  0
VERTEX
  5
3F2
  8
0
 62
     9
 10
0.0
 20
0.0
 30
0.0
 70
   128
 71
    35
 72
    34
 73
    37
  0
VERTEX
  5
3F3
  8
0
 62
     9
 10
0.0
 20
0.0
 30
0.0
 70
   128
 71
    36
 72
    39
 73
    38
  0
VERTEX
  5
3F4
  8
0
 62
     9
 10
0.0
 20
0.0
 30
0.0
 70
   128
 71
    39
 72
    36
 73
    37
  0
VERTEX
  5
3F5
  8
0
 62
     9
 10
0.0
 20
0.0
 30
0.0
 70
   128
 71
    41
 72
    38
 73
    40
  0
VERTEX
  5
3F6
  8
0
 62
     9
 10
0.0
 20
0.0
 30
0.0
 70
   128
 71
    39
 72
    40
 73
    38
  0
VERTEX
  5
3F7
  8
0
 62
     9
 10
0.0
 20
0.0
 30
0.0
 70
   128
 71
    43
 72
    42
 73
    41
  0
VERTEX
  5
3F8
  8
0
 62
     9
 10
0.0
 20
0.0
 30
0.0
 70
   128
 71
    41
 72
    40
 73
    43
  0
VERTEX
  5
3F9
  8
0
 62
     9
 10
0.0
 20
0.0
 30
0.0
 70
   128
 71
    44
 72
    42
 73
    43
  0
VERTEX
  5
3FA
  8
0
 62
     9
 10
0.0
 20
0.0
 30
0.0
 70
   128
 71
    47
 72
    46
 73
    45
  0
VERTEX
  5
3FB
  8
0
 62
     9
 10
0.0
 20
0.0
 30
0.0
 70
   128
 71
    49
 72
    48
 73
    47
  0
VERTEX
  5
3FC
  8
0
 62
     9
 10
0.0
 20
0.0
 30
0.0
 70
   128
 71
    47
 72
    45
 73
    49
  0
VERTEX
  5
3FD
  8
0
 62
     9
 10
0.0
 20
0.0
 30
0.0
 70
   128
 71
    48
 72
    51
 73
    50
  0
VERTEX
  5
3FE
  8
0
 62
     9
 10
0.0
 20
0.0
 30
0.0
 70
   128
 71
    51
 72
    48
 73
    49
  0
VERTEX
  5
3FF
  8
0
 62
     9
 10
0.0
 20
0.0
 30
0.0
 70
   128
 71
    53
 72
    50
 73
    52
  0
VERTEX
  5
400
  8
0
 62
     9
 10
0.0
 20
0.0
 30
0.0
 70
   128
 71
    51
 72
    52
 73
    50
  0
VERTEX
  5
401
  8
0
 62
     9
 10
0.0
 20
0.0
 30
0.0
 70
   128
 71
    55
 72
    54
 73
    53
  0
VERTEX
  5
402
  8
0
 62
     9
 10
0.0
 20
0.0
 30
0.0
 70
   128
 71
    53
 72
    52
 73
    55
  0
VERTEX
  5
403
  8
0
 62
     9
 10
0.0
 20
0.0
 30
0.0
 70
   128
 71
    54
 72
    57
 73
    56
  0
VERTEX
  5
404
  8
0
 62
     9
 10
0.0
 20
0.0
 30
0.0
 70
   128
 71
    57
 72
    54
 73
    55
  0
VERTEX
  5
405
  8
0
 62
     9
 10
0.0
 20
0.0
 30
0.0
 70
   128
 71
    59
 72
    56
 73
    58
  0
VERTEX
  5
406
  8
0
 62
     9
 10
0.0
 20
0.0
 30
0.0
 70
   128
 71
    57
 72
    58
 73
    56
  0
VERTEX
  5
407
  8
0
 62
     9
 10
0.0
 20
0.0
 30
0.0
 70
   128
 71
    61
 72
    60
 73
    59
  0
VERTEX
  5
408
  8
0
 62
     9
 10
0.0
 20
0.0
 30
0.0
 70
   128
 71
    59
 72
    58
 73
    61
  0
VERTEX
  5
409
  8
0
 62
     9
 10
0.0
 20
0.0
 30
0.0
 70
   128
 71
    60
 72
    63
 73
    62
  0
VERTEX
  5
40A
  8
0
 62
     9
 10
0.0
 20
0.0
 30
0.0
 70
   128
 71
    63
 72
    60
 73
    61
  0
VERTEX
  5
40B
  8
0
 62
     9
 10
0.0
 20
0.0
 30
0.0
 70
   128
 71
    65
 72
    62
 73
    64
  0
VERTEX
  5
40C
  8
0
 62
     9
 10
0.0
 20
0.0
 30
0.0
 70
   128
 71
    63
 72
    64
 73
    62
  0
VERTEX
  5
40D
  8
0
 62
     9
 10
0.0
 20
0.0
 30
0.0
 70
   128
 71
    65
 72
    64
 73
    66
  0
VERTEX
  5
40E
  8
0
 62
     9
 10
0.0
 20
0.0
 30
0.0
 70
   128
 71
    67
 72
    65
 73
    66
  0
VERTEX
  5
40F
  8
0
 62
     9
 10
0.0
 20
0.0
 30
0.0
 70
   128
 71
    46
 72
    68
 73
    45
  0
VERTEX
  5
410
  8
0
 62
     9
 10
0.0
 20
0.0
 30
0.0
 70
   128
 71
    68
 72
    70
 73
    69
  0
VERTEX
  5
411
  8
0
 62
     9
 10
0.0
 20
0.0
 30
0.0
 70
   128
 71
    70
 72
    68
 73
    46
  0
VERTEX
  5
412
  8
0
 62
     9
 10
0.0
 20
0.0
 30
0.0
 70
   128
 71
    72
 72
    69
 73
    71
  0
VERTEX
  5
413
  8
0
 62
     9
 10
0.0
 20
0.0
 30
0.0
 70
   128
 71
    70
 72
    71
 73
    69
  0
VERTEX
  5
414
  8
0
 62
     9
 10
0.0
 20
0.0
 30
0.0
 70
   128
 71
    74
 72
    73
 73
    72
  0
VERTEX
  5
415
  8
0
 62
     9
 10
0.0
 20
0.0
 30
0.0
 70
   128
 71
    72
 72
    71
 73
    74
  0
VERTEX
  5
416
  8
0
 62
     9
 10
0.0
 20
0.0
 30
0.0
 70
   128
 71
    73
 72
    76
 73
    75
  0
VERTEX
  5
417
  8
0
 62
     9
 10
0.0
 20
0.0
 30
0.0
 70
   128
 71
    76
 72
    73
 73
    74
  0
VERTEX
  5
418
  8
0
 62
     9
 10
0.0
 20
0.0
 30
0.0
 70
   128
 71
    78
 72
    75
 73
    77
  0
VERTEX
  5
419
  8
0
 62
     9
 10
0.0
 20
0.0
 30
0.0
 70
   128
 71
    76
 72
    77
 73
    75
  0
VERTEX
  5
41A
  8
0
 62
     9
 10
0.0
 20
0.0
 30
0.0
 70
   128
 71
    80
 72
    79
 73
    78
  0
VERTEX
  5
41B
  8
0
 62
     9
 10
0.0
 20
0.0
 30
0.0
 70
   128
 71
    78
 72
    77
 73
    80
  0
VERTEX
  5
41C
  8
0
 62
     9
 10
0.0
 20
0.0
 30
0.0
 70
   128
 71
    79
 72
    82
 73
    81
  0
VERTEX
  5
41D
  8
0
 62
     9
 10
0.0
 20
0.0
 30
0.0
 70
   128
 71
    82
 72
    79
 73
    80
  0
VERTEX
  5
41E
  8
0
 62
     9
 10
0.0
 20
0.0
 30
0.0
 70
   128
 71
    84
 72
    81
 73
    83
  0
VERTEX
  5
41F
  8
0
 62
     9
 10
0.0
 20
0.0
 30
0.0
 70
   128
 71
    82
 72
    83
 73
    81
  0
VERTEX
  5
420
  8
0
 62
     9
 10
0.0
 20
0.0
 30
0.0
 70
   128
 71
    86
 72
    85
 73
    84
  0
VERTEX
  5
421
  8
0
 62
     9
 10
0.0
 20
0.0
 30
0.0
 70
   128
 71
    84
 72
    83
 73
    86
  0
VERTEX
  5
422
  8
0
 62
     9
 10
0.0
 20
0.0
 30
0.0
 70
   128
 71
    87
 72
    85
 73
    86
  0
VERTEX
  5
423
  8
0
 62
     9
 10
0.0
 20
0.0
 30
0.0
 70
   128
 71
    87
 72
    88
 73
    85
  0
VERTEX
  5
424
  8
0
 62
     9
 10
0.0
 20
0.0
 30
0.0
 70
   128
 71
    90
 72
    49
 73
    89
  0
VERTEX
  5
425
  8
0
 62
     9
 10
0.0
 20
0.0
 30
0.0
 70
   128
 71
    45
 72
    91
 73
    89
  0
VERTEX
  5
426
  8
0
 62
     9
 10
0.0
 20
0.0
 30
0.0
 70
   128
 71
    90
 72
    92
 73
    51
  0
VERTEX
  5
427
  8
0
 62
     9
 10
0.0
 20
0.0
 30
0.0
 70
   128
 71
    92
 72
    52
 73
    51
  0
VERTEX
  5
428
  8
0
 62
     9
 10
0.0
 20
0.0
 30
0.0
 70
   128
 71
    52
 72
    92
 73
    93
  0
VERTEX
  5
429
  8
0
 62
     9
 10
0.0
 20
0.0
 30
0.0
 70
   128
 71
    90
 72
    51
 73
    49
  0
VERTEX
  5
42A
  8
0
 62
     9
 10
0.0
 20
0.0
 30
0.0
 70
   128
 71
    55
 72
    52
 73
    93
  0
VERTEX
  5
42B
  8
0
 62
     9
 10
0.0
 20
0.0
 30
0.0
 70
   128
 71
    93
 72
    94
 73
    55
  0
VERTEX
  5
42C
  8
0
 62
     9
 10
0.0
 20
0.0
 30
0.0
 70
   128
 71
    57
 72
    95
 73
    58
  0
VERTEX
  5
42D
  8
0
 62
     9
 10
0.0
 20
0.0
 30
0.0
 70
   128
 71
    63
 72
    96
 73
    64
  0
VERTEX
  5
42E
  8
0
 62
     9
 10
0.0
 20
0.0
 30
0.0
 70
   128
 71
    58
 72
    95
 73
    97
  0
VERTEX
  5
42F
  8
0
 62
     9
 10
0.0
 20
0.0
 30
0.0
 70
   128
 71
    95
 72
    57
 73
    94
  0
VERTEX
  5
430
  8
0
 62
     9
 10
0.0
 20
0.0
 30
0.0
 70
   128
 71
    97
 72
    61
 73
    58
  0
VERTEX
  5
431
  8
0
 62
     9
 10
0.0
 20
0.0
 30
0.0
 70
   128
 71
    63
 72
    98
 73
    96
  0
VERTEX
  5
432
  8
0
 62
     9
 10
0.0
 20
0.0
 30
0.0
 70
   128
 71
    61
 72
    97
 73
    98
  0
VERTEX
  5
433
  8
0
 62
     9
 10
0.0
 20
0.0
 30
0.0
 70
   128
 71
    63
 72
    61
 73
    98
  0
VERTEX
  5
434
  8
0
 62
     9
 10
0.0
 20
0.0
 30
0.0
 70
   128
 71
    94
 72
    57
 73
    55
  0
VERTEX
  5
435
  8
0
 62
     9
 10
0.0
 20
0.0
 30
0.0
 70
   128
 71
    64
 72
    96
 73
    99
  0
VERTEX
  5
436
  8
0
 62
     9
 10
0.0
 20
0.0
 30
0.0
 70
   128
 71
    99
 72
    66
 73
    64
  0
VERTEX
  5
437
  8
0
 62
     9
 10
0.0
 20
0.0
 30
0.0
 70
   128
 71
    49
 72
    45
 73
    89
  0
VERTEX
  5
438
  8
0
 62
     9
 10
0.0
 20
0.0
 30
0.0
 70
   128
 71
    66
 72
    99
 73
    22
  0
VERTEX
  5
439
  8
0
 62
     9
 10
0.0
 20
0.0
 30
0.0
 70
   128
 71
    91
 72
    68
 73
   100
  0
VERTEX
  5
43A
  8
0
 62
     9
 10
0.0
 20
0.0
 30
0.0
 70
   128
 71
    68
 72
    91
 73
    45
  0
VERTEX
  5
43B
  8
0
 62
     9
 10
0.0
 20
0.0
 30
0.0
 70
   128
 71
   101
 72
   100
 73
    69
  0
VERTEX
  5
43C
  8
0
 62
     9
 10
0.0
 20
0.0
 30
0.0
 70
   128
 71
    68
 72
    69
 73
   100
  0
VERTEX
  5
43D
  8
0
 62
     9
 10
0.0
 20
0.0
 30
0.0
 70
   128
 71
    72
 72
   102
 73
   101
  0
VERTEX
  5
43E
  8
0
 62
     9
 10
0.0
 20
0.0
 30
0.0
 70
   128
 71
   101
 72
    69
 73
    72
  0
VERTEX
  5
43F
  8
0
 62
     9
 10
0.0
 20
0.0
 30
0.0
 70
   128
 71
   102
 72
    73
 73
   103
  0
VERTEX
  5
440
  8
0
 62
     9
 10
0.0
 20
0.0
 30
0.0
 70
   128
 71
    73
 72
   102
 73
    72
  0
VERTEX
  5
441
  8
0
 62
     9
 10
0.0
 20
0.0
 30
0.0
 70
   128
 71
   104
 72
   103
 73
    75
  0
VERTEX
  5
442
  8
0
 62
     9
 10
0.0
 20
0.0
 30
0.0
 70
   128
 71
    73
 72
    75
 73
   103
  0
VERTEX
  5
443
  8
0
 62
     9
 10
0.0
 20
0.0
 30
0.0
 70
   128
 71
    78
 72
   105
 73
   104
  0
VERTEX
  5
444
  8
0
 62
     9
 10
0.0
 20
0.0
 30
0.0
 70
   128
 71
   104
 72
    75
 73
    78
  0
VERTEX
  5
445
  8
0
 62
     9
 10
0.0
 20
0.0
 30
0.0
 70
   128
 71
   105
 72
    79
 73
   106
  0
VERTEX
  5
446
  8
0
 62
     9
 10
0.0
 20
0.0
 30
0.0
 70
   128
 71
    79
 72
   105
 73
    78
  0
VERTEX
  5
447
  8
0
 62
     9
 10
0.0
 20
0.0
 30
0.0
 70
   128
 71
   107
 72
   106
 73
    81
  0
VERTEX
  5
448
  8
0
 62
     9
 10
0.0
 20
0.0
 30
0.0
 70
   128
 71
    79
 72
    81
 73
   106
  0
VERTEX
  5
449
  8
0
 62
     9
 10
0.0
 20
0.0
 30
0.0
 70
   128
 71
    84
 72
   108
 73
   107
  0
VERTEX
  5
44A
  8
0
 62
     9
 10
0.0
 20
0.0
 30
0.0
 70
   128
 71
   107
 72
    81
 73
    84
  0
VERTEX
  5
44B
  8
0
 62
     9
 10
0.0
 20
0.0
 30
0.0
 70
   128
 71
   108
 72
    85
 73
    42
  0
VERTEX
  5
44C
  8
0
 62
     9
 10
0.0
 20
0.0
 30
0.0
 70
   128
 71
    85
 72
   108
 73
    84
  0
VERTEX
  5
44D
  8
0
 62
     9
 10
0.0
 20
0.0
 30
0.0
 70
   128
 71
    85
 72
    88
 73
    42
  0
VERTEX
  5
44E
  8
0
 62
     9
 10
0.0
 20
0.0
 30
0.0
 70
   128
 71
    22
 72
    23
 73
   109
  0
VERTEX
  5
44F
  8
0
 62
     9
 10
0.0
 20
0.0
 30
0.0
 70
   128
 71
   111
 72
   110
 73
    20
  0
VERTEX
  5
450
  8
0
 62
     9
 10
0.0
 20
0.0
 30
0.0
 70
   128
 71
    11
 72
   112
 73
    15
  0
VERTEX
  5
451
  8
0
 62
     9
 10
0.0
 20
0.0
 30
0.0
 70
   128
 71
   113
 72
    18
 73
    16
  0
VERTEX
  5
452
  8
0
 62
     9
 10
0.0
 20
0.0
 30
0.0
 70
   128
 71
   115
 72
     4
 73
   114
  0
VERTEX
  5
453
  8
0
 62
     9
 10
0.0
 20
0.0
 30
0.0
 70
   128
 71
    12
 72
     6
 73
   116
  0
VERTEX
  5
454
  8
0
 62
     9
 10
0.0
 20
0.0
 30
0.0
 70
   128
 71
    25
 72
   118
 73
   117
  0
VERTEX
  5
455
  8
0
 62
     9
 10
0.0
 20
0.0
 30
0.0
 70
   128
 71
     2
 72
   119
 73
     7
  0
VERTEX
  5
456
  8
0
 62
     9
 10
0.0
 20
0.0
 30
0.0
 70
   128
 71
    29
 72
   121
 73
   120
  0
VERTEX
  5
457
  8
0
 62
     9
 10
0.0
 20
0.0
 30
0.0
 70
   128
 71
   120
 72
   118
 73
    26
  0
VERTEX
  5
458
  8
0
 62
     9
 10
0.0
 20
0.0
 30
0.0
 70
   128
 71
    32
 72
   123
 73
   122
  0
VERTEX
  5
459
  8
0
 62
     9
 10
0.0
 20
0.0
 30
0.0
 70
   128
 71
   122
 72
    30
 73
    32
  0
VERTEX
  5
45A
  8
0
 62
     9
 10
0.0
 20
0.0
 30
0.0
 70
   128
 71
   123
 72
    35
 73
   124
  0
VERTEX
  5
45B
  8
0
 62
     9
 10
0.0
 20
0.0
 30
0.0
 70
   128
 71
    35
 72
   123
 73
    32
  0
VERTEX
  5
45C
  8
0
 62
     9
 10
0.0
 20
0.0
 30
0.0
 70
   128
 71
   125
 72
   124
 73
    36
  0
VERTEX
  5
45D
  8
0
 62
     9
 10
0.0
 20
0.0
 30
0.0
 70
   128
 71
    35
 72
    36
 73
   124
  0
VERTEX
  5
45E
  8
0
 62
     9
 10
0.0
 20
0.0
 30
0.0
 70
   128
 71
    38
 72
   126
 73
   125
  0
VERTEX
  5
45F
  8
0
 62
     9
 10
0.0
 20
0.0
 30
0.0
 70
   128
 71
   125
 72
    36
 73
    38
  0
VERTEX
  5
460
  8
0
 62
     9
 10
0.0
 20
0.0
 30
0.0
 70
   128
 71
   126
 72
    41
 73
    88
  0
VERTEX
  5
461
  8
0
 62
     9
 10
0.0
 20
0.0
 30
0.0
 70
   128
 71
    41
 72
   126
 73
    38
  0
VERTEX
  5
462
  8
0
 62
     9
 10
0.0
 20
0.0
 30
0.0
 70
   128
 71
    41
 72
    42
 73
    88
  0
VERTEX
  5
463
  8
0
 62
     9
 10
0.0
 20
0.0
 30
0.0
 70
   128
 71
     7
 72
   114
 73
     4
  0
VERTEX
  5
464
  8
0
 62
     9
 10
0.0
 20
0.0
 30
0.0
 70
   128
 71
   121
 72
    29
 73
    30
  0
VERTEX
  5
465
  8
0
 62
     9
 10
0.0
 20
0.0
 30
0.0
 70
   128
 71
    30
 72
   122
 73
   121
  0
VERTEX
  5
466
  8
0
 62
     9
 10
0.0
 20
0.0
 30
0.0
 70
   128
 71
    29
 72
   120
 73
    26
  0
VERTEX
  5
467
  8
0
 62
     9
 10
0.0
 20
0.0
 30
0.0
 70
   128
 71
    25
 72
   117
 73
     2
  0
VERTEX
  5
468
  8
0
 62
     9
 10
0.0
 20
0.0
 30
0.0
 70
   128
 71
    25
 72
    26
 73
   118
  0
VERTEX
  5
469
  8
0
 62
     9
 10
0.0
 20
0.0
 30
0.0
 70
   128
 71
     7
 72
   119
 73
   114
  0
VERTEX
  5
46A
  8
0
 62
     9
 10
0.0
 20
0.0
 30
0.0
 70
   128
 71
   119
 72
     2
 73
   117
  0
VERTEX
  5
46B
  8
0
 62
     9
 10
0.0
 20
0.0
 30
0.0
 70
   128
 71
   115
 72
   116
 73
     6
  0
VERTEX
  5
46C
  8
0
 62
     9
 10
0.0
 20
0.0
 30
0.0
 70
   128
 71
   115
 72
     6
 73
     4
  0
VERTEX
  5
46D
  8
0
 62
     9
 10
0.0
 20
0.0
 30
0.0
 70
   128
 71
    12
 72
   127
 73
    11
  0
VERTEX
  5
46E
  8
0
 62
     9
 10
0.0
 20
0.0
 30
0.0
 70
   128
 71
   116
 72
   127
 73
    12
  0
VERTEX
  5
46F
  8
0
 62
     9
 10
0.0
 20
0.0
 30
0.0
 70
   128
 71
    15
 72
   112
 73
   128
  0
VERTEX
  5
470
  8
0
 62
     9
 10
0.0
 20
0.0
 30
0.0
 70
   128
 71
    11
 72
   127
 73
   112
  0
VERTEX
  5
471
  8
0
 62
     9
 10
0.0
 20
0.0
 30
0.0
 70
   128
 71
    16
 72
    15
 73
   128
  0
VERTEX
  5
472
  8
0
 62
     9
 10
0.0
 20
0.0
 30
0.0
 70
   128
 71
    18
 72
   113
 73
   111
  0
VERTEX
  5
473
  8
0
 62
     9
 10
0.0
 20
0.0
 30
0.0
 70
   128
 71
   113
 72
    16
 73
   128
  0
VERTEX
  5
474
  8
0
 62
     9
 10
0.0
 20
0.0
 30
0.0
 70
   128
 71
    23
 72
    20
 73
   110
  0
VERTEX
  5
475
  8
0
 62
     9
 10
0.0
 20
0.0
 30
0.0
 70
   128
 71
   111
 72
    20
 73
    18
  0
VERTEX
  5
476
  8
0
 62
     9
 10
0.0
 20
0.0
 30
0.0
 70
   128
 71
   109
 72
    66
 73
    22
  0
VERTEX
  5
477
  8
0
 62
     9
 10
0.0
 20
0.0
 30
0.0
 70
   128
 71
   110
 72
   109
 73
    23
  0
VERTEX
  5
478
  8
0
 62
     9
 10
0.0
 20
0.0
 30
0.0
 70
   128
 71
    67
 72
    66
 73
   109
  0
VERTEX
  5
479
  8
0
 62
     9
 10
0.0
 20
0.0
 30
0.0
 70
   128
 71
   130
 72
   113
 73
   129
  0
VERTEX
  5
47A
  8
0
 62
     9
 10
0.0
 20
0.0
 30
0.0
 70
   128
 71
   131
 72
   110
 73
   111
  0
VERTEX
  5
47B
  8
0
 62
     9
 10
0.0
 20
0.0
 30
0.0
 70
   128
 71
   116
 72
   132
 73
   127
  0
VERTEX
  5
47C
  8
0
 62
     9
 10
0.0
 20
0.0
 30
0.0
 70
   128
 71
   134
 72
   133
 73
   112
  0
VERTEX
  5
47D
  8
0
 62
     9
 10
0.0
 20
0.0
 30
0.0
 70
   128
 71
   136
 72
   119
 73
   135
  0
VERTEX
  5
47E
  8
0
 62
     9
 10
0.0
 20
0.0
 30
0.0
 70
   128
 71
   115
 72
   114
 73
   137
  0
VERTEX
  5
47F
  8
0
 62
     9
 10
0.0
 20
0.0
 30
0.0
 70
   128
 71
   118
 72
   120
 73
   138
  0
VERTEX
  5
480
  8
0
 62
     9
 10
0.0
 20
0.0
 30
0.0
 70
   128
 71
   118
 72
   139
 73
   117
  0
VERTEX
  5
481
  8
0
 62
     9
 10
0.0
 20
0.0
 30
0.0
 70
   128
 71
   121
 72
   122
 73
   140
  0
VERTEX
  5
482
  8
0
 62
     9
 10
0.0
 20
0.0
 30
0.0
 70
   128
 71
   121
 72
   141
 73
   120
  0
VERTEX
  5
483
  8
0
 62
     9
 10
0.0
 20
0.0
 30
0.0
 70
   128
 71
   143
 72
   123
 73
   142
  0
VERTEX
  5
484
  8
0
 62
     9
 10
0.0
 20
0.0
 30
0.0
 70
   128
 71
   123
 72
   143
 73
   122
  0
VERTEX
  5
485
  8
0
 62
     9
 10
0.0
 20
0.0
 30
0.0
 70
   128
 71
   144
 72
   142
 73
   124
  0
VERTEX
  5
486
  8
0
 62
     9
 10
0.0
 20
0.0
 30
0.0
 70
   128
 71
   123
 72
   124
 73
   142
  0
VERTEX
  5
487
  8
0
 62
     9
 10
0.0
 20
0.0
 30
0.0
 70
   128
 71
   125
 72
   145
 73
   144
  0
VERTEX
  5
488
  8
0
 62
     9
 10
0.0
 20
0.0
 30
0.0
 70
   128
 71
   144
 72
   124
 73
   125
  0
VERTEX
  5
489
  8
0
 62
     9
 10
0.0
 20
0.0
 30
0.0
 70
   128
 71
   145
 72
   126
 73
   146
  0
VERTEX
  5
48A
  8
0
 62
     9
 10
0.0
 20
0.0
 30
0.0
 70
   128
 71
   126
 72
   145
 73
   125
  0
VERTEX
  5
48B
  8
0
 62
     9
 10
0.0
 20
0.0
 30
0.0
 70
   128
 71
    87
 72
   146
 73
    88
  0
VERTEX
  5
48C
  8
0
 62
     9
 10
0.0
 20
0.0
 30
0.0
 70
   128
 71
   126
 72
    88
 73
   146
  0
VERTEX
  5
48D
  8
0
 62
     9
 10
0.0
 20
0.0
 30
0.0
 70
   128
 71
   141
 72
   121
 73
   140
  0
VERTEX
  5
48E
  8
0
 62
     9
 10
0.0
 20
0.0
 30
0.0
 70
   128
 71
   122
 72
   143
 73
   140
  0
VERTEX
  5
48F
  8
0
 62
     9
 10
0.0
 20
0.0
 30
0.0
 70
   128
 71
   138
 72
   139
 73
   118
  0
VERTEX
  5
490
  8
0
 62
     9
 10
0.0
 20
0.0
 30
0.0
 70
   128
 71
   120
 72
   141
 73
   138
  0
VERTEX
  5
491
  8
0
 62
     9
 10
0.0
 20
0.0
 30
0.0
 70
   128
 71
   119
 72
   117
 73
   135
  0
VERTEX
  5
492
  8
0
 62
     9
 10
0.0
 20
0.0
 30
0.0
 70
   128
 71
   117
 72
   139
 73
   135
  0
VERTEX
  5
493
  8
0
 62
     9
 10
0.0
 20
0.0
 30
0.0
 70
   128
 71
   137
 72
   114
 73
   136
  0
VERTEX
  5
494
  8
0
 62
     9
 10
0.0
 20
0.0
 30
0.0
 70
   128
 71
   114
 72
   119
 73
   136
  0
VERTEX
  5
495
  8
0
 62
     9
 10
0.0
 20
0.0
 30
0.0
 70
   128
 71
   147
 72
   116
 73
   115
  0
VERTEX
  5
496
  8
0
 62
     9
 10
0.0
 20
0.0
 30
0.0
 70
   128
 71
   147
 72
   115
 73
   137
  0
VERTEX
  5
497
  8
0
 62
     9
 10
0.0
 20
0.0
 30
0.0
 70
   128
 71
   132
 72
   134
 73
   127
  0
VERTEX
  5
498
  8
0
 62
     9
 10
0.0
 20
0.0
 30
0.0
 70
   128
 71
   147
 72
   132
 73
   116
  0
VERTEX
  5
499
  8
0
 62
     9
 10
0.0
 20
0.0
 30
0.0
 70
   128
 71
   112
 72
   133
 73
   128
  0
VERTEX
  5
49A
  8
0
 62
     9
 10
0.0
 20
0.0
 30
0.0
 70
   128
 71
   127
 72
   134
 73
   112
  0
VERTEX
  5
49B
  8
0
 62
     9
 10
0.0
 20
0.0
 30
0.0
 70
   128
 71
   129
 72
   113
 73
   128
  0
VERTEX
  5
49C
  8
0
 62
     9
 10
0.0
 20
0.0
 30
0.0
 70
   128
 71
   128
 72
   133
 73
   129
  0
VERTEX
  5
49D
  8
0
 62
     9
 10
0.0
 20
0.0
 30
0.0
 70
   128
 71
   131
 72
   111
 73
   130
  0
VERTEX
  5
49E
  8
0
 62
     9
 10
0.0
 20
0.0
 30
0.0
 70
   128
 71
   111
 72
   113
 73
   130
  0
VERTEX
  5
49F
  8
0
 62
     9
 10
0.0
 20
0.0
 30
0.0
 70
   128
 71
   148
 72
   109
 73
   110
  0
VERTEX
  5
4A0
  8
0
 62
     9
 10
0.0
 20
0.0
 30
0.0
 70
   128
 71
   148
 72
   110
 73
   131
  0
VERTEX
  5
4A1
  8
0
 62
     9
 10
0.0
 20
0.0
 30
0.0
 70
   128
 71
   109
 72
   148
 73
    67
  0
VERTEX
  5
4A2
  8
0
 62
     9
 10
0.0
 20
0.0
 30
0.0
 70
   128
 71
    99
 72
   149
 73
    22
  0
VERTEX
  5
4A3
  8
0
 62
     9
 10
0.0
 20
0.0
 30
0.0
 70
   128
 71
   150
 72
    98
 73
    97
  0
VERTEX
  5
4A4
  8
0
 62
     9
 10
0.0
 20
0.0
 30
0.0
 70
   128
 71
   152
 72
    96
 73
   151
  0
VERTEX
  5
4A5
  8
0
 62
     9
 10
0.0
 20
0.0
 30
0.0
 70
   128
 71
    93
 72
   154
 73
   153
  0
VERTEX
  5
4A6
  8
0
 62
     9
 10
0.0
 20
0.0
 30
0.0
 70
   128
 71
    94
 72
   155
 73
    95
  0
VERTEX
  5
4A7
  8
0
 62
     9
 10
0.0
 20
0.0
 30
0.0
 70
   128
 71
   156
 72
    89
 73
    91
  0
VERTEX
  5
4A8
  8
0
 62
     9
 10
0.0
 20
0.0
 30
0.0
 70
   128
 71
   158
 72
    90
 73
   157
  0
VERTEX
  5
4A9
  8
0
 62
     9
 10
0.0
 20
0.0
 30
0.0
 70
   128
 71
   160
 72
   101
 73
   159
  0
VERTEX
  5
4AA
  8
0
 62
     9
 10
0.0
 20
0.0
 30
0.0
 70
   128
 71
   100
 72
   160
 73
   161
  0
VERTEX
  5
4AB
  8
0
 62
     9
 10
0.0
 20
0.0
 30
0.0
 70
   128
 71
   103
 72
   104
 73
   162
  0
VERTEX
  5
4AC
  8
0
 62
     9
 10
0.0
 20
0.0
 30
0.0
 70
   128
 71
   102
 72
   163
 73
   159
  0
VERTEX
  5
4AD
  8
0
 62
     9
 10
0.0
 20
0.0
 30
0.0
 70
   128
 71
   164
 72
   104
 73
   105
  0
VERTEX
  5
4AE
  8
0
 62
     9
 10
0.0
 20
0.0
 30
0.0
 70
   128
 71
   104
 72
   164
 73
   162
  0
VERTEX
  5
4AF
  8
0
 62
     9
 10
0.0
 20
0.0
 30
0.0
 70
   128
 71
   106
 72
   165
 73
   105
  0
VERTEX
  5
4B0
  8
0
 62
     9
 10
0.0
 20
0.0
 30
0.0
 70
   128
 71
   164
 72
   105
 73
   165
  0
VERTEX
  5
4B1
  8
0
 62
     9
 10
0.0
 20
0.0
 30
0.0
 70
   128
 71
   106
 72
   107
 73
   166
  0
VERTEX
  5
4B2
  8
0
 62
     9
 10
0.0
 20
0.0
 30
0.0
 70
   128
 71
   166
 72
   165
 73
   106
  0
VERTEX
  5
4B3
  8
0
 62
     9
 10
0.0
 20
0.0
 30
0.0
 70
   128
 71
   167
 72
   107
 73
   108
  0
VERTEX
  5
4B4
  8
0
 62
     9
 10
0.0
 20
0.0
 30
0.0
 70
   128
 71
   107
 72
   167
 73
   166
  0
VERTEX
  5
4B5
  8
0
 62
     9
 10
0.0
 20
0.0
 30
0.0
 70
   128
 71
    42
 72
    44
 73
   108
  0
VERTEX
  5
4B6
  8
0
 62
     9
 10
0.0
 20
0.0
 30
0.0
 70
   128
 71
   167
 72
   108
 73
    44
  0
VERTEX
  5
4B7
  8
0
 62
     9
 10
0.0
 20
0.0
 30
0.0
 70
   128
 71
   163
 72
   103
 73
   162
  0
VERTEX
  5
4B8
  8
0
 62
     9
 10
0.0
 20
0.0
 30
0.0
 70
   128
 71
   102
 72
   103
 73
   163
  0
VERTEX
  5
4B9
  8
0
 62
     9
 10
0.0
 20
0.0
 30
0.0
 70
   128
 71
   101
 72
   102
 73
   159
  0
VERTEX
  5
4BA
  8
0
 62
     9
 10
0.0
 20
0.0
 30
0.0
 70
   128
 71
   100
 72
   161
 73
    91
  0
VERTEX
  5
4BB
  8
0
 62
     9
 10
0.0
 20
0.0
 30
0.0
 70
   128
 71
   101
 72
   160
 73
   100
  0
VERTEX
  5
4BC
  8
0
 62
     9
 10
0.0
 20
0.0
 30
0.0
 70
   128
 71
    89
 72
   156
 73
   157
  0
VERTEX
  5
4BD
  8
0
 62
     9
 10
0.0
 20
0.0
 30
0.0
 70
   128
 71
   156
 72
    91
 73
   161
  0
VERTEX
  5
4BE
  8
0
 62
     9
 10
0.0
 20
0.0
 30
0.0
 70
   128
 71
   158
 72
    92
 73
    90
  0
VERTEX
  5
4BF
  8
0
 62
     9
 10
0.0
 20
0.0
 30
0.0
 70
   128
 71
   157
 72
    90
 73
    89
  0
VERTEX
  5
4C0
  8
0
 62
     9
 10
0.0
 20
0.0
 30
0.0
 70
   128
 71
    92
 72
   154
 73
    93
  0
VERTEX
  5
4C1
  8
0
 62
     9
 10
0.0
 20
0.0
 30
0.0
 70
   128
 71
   158
 72
   154
 73
    92
  0
VERTEX
  5
4C2
  8
0
 62
     9
 10
0.0
 20
0.0
 30
0.0
 70
   128
 71
    94
 72
   153
 73
   155
  0
VERTEX
  5
4C3
  8
0
 62
     9
 10
0.0
 20
0.0
 30
0.0
 70
   128
 71
    93
 72
   153
 73
    94
  0
VERTEX
  5
4C4
  8
0
 62
     9
 10
0.0
 20
0.0
 30
0.0
 70
   128
 71
   168
 72
    97
 73
    95
  0
VERTEX
  5
4C5
  8
0
 62
     9
 10
0.0
 20
0.0
 30
0.0
 70
   128
 71
    95
 72
   155
 73
   168
  0
VERTEX
  5
4C6
  8
0
 62
     9
 10
0.0
 20
0.0
 30
0.0
 70
   128
 71
    98
 72
   150
 73
   151
  0
VERTEX
  5
4C7
  8
0
 62
     9
 10
0.0
 20
0.0
 30
0.0
 70
   128
 71
   150
 72
    97
 73
   168
  0
VERTEX
  5
4C8
  8
0
 62
     9
 10
0.0
 20
0.0
 30
0.0
 70
   128
 71
   151
 72
    96
 73
    98
  0
VERTEX
  5
4C9
  8
0
 62
     9
 10
0.0
 20
0.0
 30
0.0
 70
   128
 71
    99
 72
   152
 73
   149
  0
VERTEX
  5
4CA
  8
0
 62
     9
 10
0.0
 20
0.0
 30
0.0
 70
   128
 71
    99
 72
    96
 73
   152
  0
VERTEX
  5
4CB
  8
0
 62
     9
 10
0.0
 20
0.0
 30
0.0
 70
   128
 71
   149
 72
    24
 73
    22
  0
SEQEND
  5
4CC
  8
0
 62
     9
  0
ENDBLK
  5
4CF
  8
0
  0
BLOCK
  8
0
  2
40
 70
     0
 10
0.0
 20
0.0
 30
0.0
  3
40
  1

  0
POLYLINE
  5
4D1
  8
0
 62
     9
 66
     1
 10
0.0
 20
0.0
 30
0.0
 70
    64
 71
    68
 72
    68
  0
VERTEX
  5
4D2
  8
0
 10
3.437093019485474
 20
217.0398864746094
 30
10.19999980926514
 70
   192
  0
VERTEX
  5
4D3
  8
0
 10
3.424307107925415
 20
217.0419006347656
 30
17.5
 70
   192
  0
VERTEX
  5
4D4
  8
0
 10
-3.424307107925415
 20
217.0419006347656
 30
10.19999980926514
 70
   192
  0
VERTEX
  5
4D5
  8
0
 10
10.17450714111328
 20
215.7824096679688
 30
17.5
 70
   192
  0
VERTEX
  5
4D6
  8
0
 10
10.17803192138672
 20
215.778076171875
 30
10.19999980926514
 70
   192
  0
VERTEX
  5
4D7
  8
0
 10
16.58074188232422
 20
213.2972259521484
 30
10.19999980926514
 70
   192
  0
VERTEX
  5
4D8
  8
0
 10
16.57241630554199
 20
213.3069458007812
 30
17.5
 70
   192
  0
VERTEX
  5
4D9
  8
0
 10
22.41308212280273
 20
209.6850128173828
 30
10.19999980926514
 70
   192
  0
VERTEX
  5
4DA
  8
0
 10
22.40560340881348
 20
209.6972503662109
 30
17.5
 70
   192
  0
VERTEX
  5
4DB
  8
0
 10
27.47597312927246
 20
205.0458526611328
 30
10.19999980926514
 70
   192
  0
VERTEX
  5
4DC
  8
0
 10
27.38121032714844
 20
204.9776916503906
 30
17.5
 70
   192
  0
VERTEX
  5
4DD
  8
0
 10
31.60746383666992
 20
199.5677947998047
 30
10.19999980926514
 70
   192
  0
VERTEX
  5
4DE
  8
0
 10
31.64925193786621
 20
199.6095581054688
 30
17.5
 70
   192
  0
VERTEX
  5
4DF
  8
0
 10
34.69015884399414
 20
193.446533203125
 30
17.5
 70
   192
  0
VERTEX
  5
4E0
  8
0
 10
34.68428421020508
 20
193.4285583496094
 30
10.19999980926514
 70
   192
  0
VERTEX
  5
4E1
  8
0
 10
36.56484222412109
 20
186.8275604248047
 30
10.19999980926514
 70
   192
  0
VERTEX
  5
4E2
  8
0
 10
36.56889343261719
 20
186.8404541015625
 30
17.5
 70
   192
  0
VERTEX
  5
4E3
  8
0
 10
37.20000076293945
 20
180.0
 30
17.5
 70
   192
  0
VERTEX
  5
4E4
  8
0
 10
37.20000076293945
 20
180.0
 30
10.19999980926514
 70
   192
  0
VERTEX
  5
4E5
  8
0
 10
-3.437093019485474
 20
217.0398864746094
 30
17.5
 70
   192
  0
VERTEX
  5
4E6
  8
0
 10
-10.17803192138672
 20
215.778076171875
 30
17.5
 70
   192
  0
VERTEX
  5
4E7
  8
0
 10
-10.17450714111328
 20
215.7824096679688
 30
10.19999980926514
 70
   192
  0
VERTEX
  5
4E8
  8
0
 10
-16.58074188232422
 20
213.2972259521484
 30
17.5
 70
   192
  0
VERTEX
  5
4E9
  8
0
 10
-16.57241630554199
 20
213.3069458007812
 30
10.19999980926514
 70
   192
  0
VERTEX
  5
4EA
  8
0
 10
-22.40560340881348
 20
209.6972503662109
 30
10.19999980926514
 70
   192
  0
VERTEX
  5
4EB
  8
0
 10
-22.41308212280273
 20
209.6850128173828
 30
17.5
 70
   192
  0
VERTEX
  5
4EC
  8
0
 10
-27.47597312927246
 20
205.0458526611328
 30
17.5
 70
   192
  0
VERTEX
  5
4ED
  8
0
 10
-27.38121032714844
 20
204.9776916503906
 30
10.19999980926514
 70
   192
  0
VERTEX
  5
4EE
  8
0
 10
-31.64925193786621
 20
199.6095581054688
 30
10.19999980926514
 70
   192
  0
VERTEX
  5
4EF
  8
0
 10
-31.60746383666992
 20
199.5677947998047
 30
17.5
 70
   192
  0
VERTEX
  5
4F0
  8
0
 10
-34.68428421020508
 20
193.4285583496094
 30
17.5
 70
   192
  0
VERTEX
  5
4F1
  8
0
 10
-34.69015884399414
 20
193.446533203125
 30
10.19999980926514
 70
   192
  0
VERTEX
  5
4F2
  8
0
 10
-36.56484222412109
 20
186.8275604248047
 30
17.5
 70
   192
  0
VERTEX
  5
4F3
  8
0
 10
-36.56889343261719
 20
186.8404541015625
 30
10.19999980926514
 70
   192
  0
VERTEX
  5
4F4
  8
0
 10
-37.20000076293945
 20
180.0
 30
10.19999980926514
 70
   192
  0
VERTEX
  5
4F5
  8
0
 10
-37.20000076293945
 20
180.0
 30
17.5
 70
   192
  0
VERTEX
  5
4F6
  8
0
 10
36.56484222412109
 20
173.1724395751953
 30
17.5
 70
   192
  0
VERTEX
  5
4F7
  8
0
 10
27.47597312927246
 20
154.9541473388672
 30
17.5
 70
   192
  0
VERTEX
  5
4F8
  8
0
 10
31.60746383666992
 20
160.4322052001953
 30
17.5
 70
   192
  0
VERTEX
  5
4F9
  8
0
 10
27.38121032714844
 20
155.0223083496094
 30
10.19999980926514
 70
   192
  0
VERTEX
  5
4FA
  8
0
 10
34.68428421020508
 20
166.5714416503906
 30
17.5
 70
   192
  0
VERTEX
  5
4FB
  8
0
 10
34.69015884399414
 20
166.553466796875
 30
10.19999980926514
 70
   192
  0
VERTEX
  5
4FC
  8
0
 10
31.64925193786621
 20
160.3904418945312
 30
10.19999980926514
 70
   192
  0
VERTEX
  5
4FD
  8
0
 10
10.17803192138672
 20
144.221923828125
 30
17.5
 70
   192
  0
VERTEX
  5
4FE
  8
0
 10
10.17450714111328
 20
144.2175903320312
 30
10.19999980926514
 70
   192
  0
VERTEX
  5
4FF
  8
0
 10
3.437093019485474
 20
142.9601135253906
 30
17.5
 70
   192
  0
VERTEX
  5
500
  8
0
 10
16.58074188232422
 20
146.7027740478516
 30
17.5
 70
   192
  0
VERTEX
  5
501
  8
0
 10
22.40560340881348
 20
150.3027496337891
 30
10.19999980926514
 70
   192
  0
VERTEX
  5
502
  8
0
 10
16.57241630554199
 20
146.6930541992188
 30
10.19999980926514
 70
   192
  0
VERTEX
  5
503
  8
0
 10
-16.57241630554199
 20
146.6930541992188
 30
17.5
 70
   192
  0
VERTEX
  5
504
  8
0
 10
-10.17450714111328
 20
144.2175903320312
 30
17.5
 70
   192
  0
VERTEX
  5
505
  8
0
 10
-10.17803192138672
 20
144.221923828125
 30
10.19999980926514
 70
   192
  0
VERTEX
  5
506
  8
0
 10
-3.437093019485474
 20
142.9601135253906
 30
10.19999980926514
 70
   192
  0
VERTEX
  5
507
  8
0
 10
-3.424307107925415
 20
142.9580993652344
 30
17.5
 70
   192
  0
VERTEX
  5
508
  8
0
 10
3.424307107925415
 20
142.9580993652344
 30
10.19999980926514
 70
   192
  0
VERTEX
  5
509
  8
0
 10
-22.40560340881348
 20
150.3027496337891
 30
17.5
 70
   192
  0
VERTEX
  5
50A
  8
0
 10
-22.41308212280273
 20
150.3149871826172
 30
10.19999980926514
 70
   192
  0
VERTEX
  5
50B
  8
0
 10
-27.47597312927246
 20
154.9541473388672
 30
10.19999980926514
 70
   192
  0
VERTEX
  5
50C
  8
0
 10
-16.58074188232422
 20
146.7027740478516
 30
10.19999980926514
 70
   192
  0
VERTEX
  5
50D
  8
0
 10
-27.38121032714844
 20
155.0223083496094
 30
17.5
 70
   192
  0
VERTEX
  5
50E
  8
0
 10
-31.60746383666992
 20
160.4322052001953
 30
10.19999980926514
 70
   192
  0
VERTEX
  5
50F
  8
0
 10
-31.64925193786621
 20
160.3904418945312
 30
17.5
 70
   192
  0
VERTEX
  5
510
  8
0
 10
-34.68428421020508
 20
166.5714416503906
 30
10.19999980926514
 70
   192
  0
VERTEX
  5
511
  8
0
 10
-34.69015884399414
 20
166.553466796875
 30
17.5
 70
   192
  0
VERTEX
  5
512
  8
0
 10
-36.56889343261719
 20
173.1595458984375
 30
17.5
 70
   192
  0
VERTEX
  5
513
  8
0
 10
-36.56484222412109
 20
173.1724395751953
 30
10.19999980926514
 70
   192
  0
VERTEX
  5
514
  8
0
 10
22.41308212280273
 20
150.3149871826172
 30
17.5
 70
   192
  0
VERTEX
  5
515
  8
0
 10
36.56889343261719
 20
173.1595458984375
 30
10.19999980926514
 70
   192
  0
VERTEX
  5
516
  8
0
 62
     9
 10
0.0
 20
0.0
 30
0.0
 70
   128
 71
     3
 72
     2
 73
     1
  0
VERTEX
  5
517
  8
0
 62
     9
 10
0.0
 20
0.0
 30
0.0
 70
   128
 71
     5
 72
     1
 73
     4
  0
VERTEX
  5
518
  8
0
 62
     9
 10
0.0
 20
0.0
 30
0.0
 70
   128
 71
     2
 72
     4
 73
     1
  0
VERTEX
  5
519
  8
0
 62
     9
 10
0.0
 20
0.0
 30
0.0
 70
   128
 71
     7
 72
     6
 73
     5
  0
VERTEX
  5
51A
  8
0
 62
     9
 10
0.0
 20
0.0
 30
0.0
 70
   128
 71
     5
 72
     4
 73
     7
  0
VERTEX
  5
51B
  8
0
 62
     9
 10
0.0
 20
0.0
 30
0.0
 70
   128
 71
     6
 72
     9
 73
     8
  0
VERTEX
  5
51C
  8
0
 62
     9
 10
0.0
 20
0.0
 30
0.0
 70
   128
 71
     9
 72
     6
 73
     7
  0
VERTEX
  5
51D
  8
0
 62
     9
 10
0.0
 20
0.0
 30
0.0
 70
   128
 71
    11
 72
    10
 73
     9
  0
VERTEX
  5
51E
  8
0
 62
     9
 10
0.0
 20
0.0
 30
0.0
 70
   128
 71
     8
 72
     9
 73
    10
  0
VERTEX
  5
51F
  8
0
 62
     9
 10
0.0
 20
0.0
 30
0.0
 70
   128
 71
    11
 72
    13
 73
    12
  0
VERTEX
  5
520
  8
0
 62
     9
 10
0.0
 20
0.0
 30
0.0
 70
   128
 71
    12
 72
    10
 73
    11
  0
VERTEX
  5
521
  8
0
 62
     9
 10
0.0
 20
0.0
 30
0.0
 70
   128
 71
    15
 72
    13
 73
    14
  0
VERTEX
  5
522
  8
0
 62
     9
 10
0.0
 20
0.0
 30
0.0
 70
   128
 71
    13
 72
    15
 73
    12
  0
VERTEX
  5
523
  8
0
 62
     9
 10
0.0
 20
0.0
 30
0.0
 70
   128
 71
    17
 72
    16
 73
    14
  0
VERTEX
  5
524
  8
0
 62
     9
 10
0.0
 20
0.0
 30
0.0
 70
   128
 71
    15
 72
    14
 73
    16
  0
VERTEX
  5
525
  8
0
 62
     9
 10
0.0
 20
0.0
 30
0.0
 70
   128
 71
    16
 72
    17
 73
    18
  0
VERTEX
  5
526
  8
0
 62
     9
 10
0.0
 20
0.0
 30
0.0
 70
   128
 71
    19
 72
    16
 73
    18
  0
VERTEX
  5
527
  8
0
 62
     9
 10
0.0
 20
0.0
 30
0.0
 70
   128
 71
     3
 72
    20
 73
     2
  0
VERTEX
  5
528
  8
0
 62
     9
 10
0.0
 20
0.0
 30
0.0
 70
   128
 71
    22
 72
    21
 73
    20
  0
VERTEX
  5
529
  8
0
 62
     9
 10
0.0
 20
0.0
 30
0.0
 70
   128
 71
    20
 72
     3
 73
    22
  0
VERTEX
  5
52A
  8
0
 62
     9
 10
0.0
 20
0.0
 30
0.0
 70
   128
 71
    21
 72
    24
 73
    23
  0
VERTEX
  5
52B
  8
0
 62
     9
 10
0.0
 20
0.0
 30
0.0
 70
   128
 71
    24
 72
    21
 73
    22
  0
VERTEX
  5
52C
  8
0
 62
     9
 10
0.0
 20
0.0
 30
0.0
 70
   128
 71
    26
 72
    23
 73
    25
  0
VERTEX
  5
52D
  8
0
 62
     9
 10
0.0
 20
0.0
 30
0.0
 70
   128
 71
    24
 72
    25
 73
    23
  0
VERTEX
  5
52E
  8
0
 62
     9
 10
0.0
 20
0.0
 30
0.0
 70
   128
 71
    25
 72
    28
 73
    27
  0
VERTEX
  5
52F
  8
0
 62
     9
 10
0.0
 20
0.0
 30
0.0
 70
   128
 71
    27
 72
    26
 73
    25
  0
VERTEX
  5
530
  8
0
 62
     9
 10
0.0
 20
0.0
 30
0.0
 70
   128
 71
    30
 72
    28
 73
    29
  0
VERTEX
  5
531
  8
0
 62
     9
 10
0.0
 20
0.0
 30
0.0
 70
   128
 71
    28
 72
    30
 73
    27
  0
VERTEX
  5
532
  8
0
 62
     9
 10
0.0
 20
0.0
 30
0.0
 70
   128
 71
    32
 72
    31
 73
    29
  0
VERTEX
  5
533
  8
0
 62
     9
 10
0.0
 20
0.0
 30
0.0
 70
   128
 71
    30
 72
    29
 73
    31
  0
VERTEX
  5
534
  8
0
 62
     9
 10
0.0
 20
0.0
 30
0.0
 70
   128
 71
    32
 72
    34
 73
    33
  0
VERTEX
  5
535
  8
0
 62
     9
 10
0.0
 20
0.0
 30
0.0
 70
   128
 71
    33
 72
    31
 73
    32
  0
VERTEX
  5
536
  8
0
 62
     9
 10
0.0
 20
0.0
 30
0.0
 70
   128
 71
    35
 72
    33
 73
    34
  0
VERTEX
  5
537
  8
0
 62
     9
 10
0.0
 20
0.0
 30
0.0
 70
   128
 71
    35
 72
    36
 73
    33
  0
VERTEX
  5
538
  8
0
 62
     9
 10
0.0
 20
0.0
 30
0.0
 70
   128
 71
    19
 72
    18
 73
    37
  0
VERTEX
  5
539
  8
0
 62
     9
 10
0.0
 20
0.0
 30
0.0
 70
   128
 71
    40
 72
    39
 73
    38
  0
VERTEX
  5
53A
  8
0
 62
     9
 10
0.0
 20
0.0
 30
0.0
 70
   128
 71
    43
 72
    42
 73
    41
  0
VERTEX
  5
53B
  8
0
 62
     9
 10
0.0
 20
0.0
 30
0.0
 70
   128
 71
    46
 72
    45
 73
    44
  0
VERTEX
  5
53C
  8
0
 62
     9
 10
0.0
 20
0.0
 30
0.0
 70
   128
 71
    49
 72
    48
 73
    47
  0
VERTEX
  5
53D
  8
0
 62
     9
 10
0.0
 20
0.0
 30
0.0
 70
   128
 71
    52
 72
    51
 73
    50
  0
VERTEX
  5
53E
  8
0
 62
     9
 10
0.0
 20
0.0
 30
0.0
 70
   128
 71
    55
 72
    54
 73
    53
  0
VERTEX
  5
53F
  8
0
 62
     9
 10
0.0
 20
0.0
 30
0.0
 70
   128
 71
    58
 72
    57
 73
    56
  0
VERTEX
  5
540
  8
0
 62
     9
 10
0.0
 20
0.0
 30
0.0
 70
   128
 71
    50
 72
    56
 73
    59
  0
VERTEX
  5
541
  8
0
 62
     9
 10
0.0
 20
0.0
 30
0.0
 70
   128
 71
    62
 72
    61
 73
    60
  0
VERTEX
  5
542
  8
0
 62
     9
 10
0.0
 20
0.0
 30
0.0
 70
   128
 71
    58
 72
    60
 73
    61
  0
VERTEX
  5
543
  8
0
 62
     9
 10
0.0
 20
0.0
 30
0.0
 70
   128
 71
    62
 72
    64
 73
    63
  0
VERTEX
  5
544
  8
0
 62
     9
 10
0.0
 20
0.0
 30
0.0
 70
   128
 71
    63
 72
    61
 73
    62
  0
VERTEX
  5
545
  8
0
 62
     9
 10
0.0
 20
0.0
 30
0.0
 70
   128
 71
    66
 72
    64
 73
    65
  0
VERTEX
  5
546
  8
0
 62
     9
 10
0.0
 20
0.0
 30
0.0
 70
   128
 71
    64
 72
    66
 73
    63
  0
VERTEX
  5
547
  8
0
 62
     9
 10
0.0
 20
0.0
 30
0.0
 70
   128
 71
    35
 72
    66
 73
    36
  0
VERTEX
  5
548
  8
0
 62
     9
 10
0.0
 20
0.0
 30
0.0
 70
   128
 71
    65
 72
    36
 73
    66
  0
VERTEX
  5
549
  8
0
 62
     9
 10
0.0
 20
0.0
 30
0.0
 70
   128
 71
    59
 72
    56
 73
    57
  0
VERTEX
  5
54A
  8
0
 62
     9
 10
0.0
 20
0.0
 30
0.0
 70
   128
 71
    58
 72
    56
 73
    60
  0
VERTEX
  5
54B
  8
0
 62
     9
 10
0.0
 20
0.0
 30
0.0
 70
   128
 71
    51
 72
    52
 73
    53
  0
VERTEX
  5
54C
  8
0
 62
     9
 10
0.0
 20
0.0
 30
0.0
 70
   128
 71
    52
 72
    50
 73
    59
  0
VERTEX
  5
54D
  8
0
 62
     9
 10
0.0
 20
0.0
 30
0.0
 70
   128
 71
    55
 72
    46
 73
    54
  0
VERTEX
  5
54E
  8
0
 62
     9
 10
0.0
 20
0.0
 30
0.0
 70
   128
 71
    53
 72
    54
 73
    51
  0
VERTEX
  5
54F
  8
0
 62
     9
 10
0.0
 20
0.0
 30
0.0
 70
   128
 71
    45
 72
    49
 73
    44
  0
VERTEX
  5
550
  8
0
 62
     9
 10
0.0
 20
0.0
 30
0.0
 70
   128
 71
    55
 72
    45
 73
    46
  0
VERTEX
  5
551
  8
0
 62
     9
 10
0.0
 20
0.0
 30
0.0
 70
   128
 71
    47
 72
    48
 73
    67
  0
VERTEX
  5
552
  8
0
 62
     9
 10
0.0
 20
0.0
 30
0.0
 70
   128
 71
    44
 72
    49
 73
    47
  0
VERTEX
  5
553
  8
0
 62
     9
 10
0.0
 20
0.0
 30
0.0
 70
   128
 71
    48
 72
    40
 73
    38
  0
VERTEX
  5
554
  8
0
 62
     9
 10
0.0
 20
0.0
 30
0.0
 70
   128
 71
    38
 72
    67
 73
    48
  0
VERTEX
  5
555
  8
0
 62
     9
 10
0.0
 20
0.0
 30
0.0
 70
   128
 71
    43
 72
    41
 73
    39
  0
VERTEX
  5
556
  8
0
 62
     9
 10
0.0
 20
0.0
 30
0.0
 70
   128
 71
    43
 72
    39
 73
    40
  0
VERTEX
  5
557
  8
0
 62
     9
 10
0.0
 20
0.0
 30
0.0
 70
   128
 71
    42
 72
    68
 73
    37
  0
VERTEX
  5
558
  8
0
 62
     9
 10
0.0
 20
0.0
 30
0.0
 70
   128
 71
    42
 72
    37
 73
    41
  0
VERTEX
  5
559
  8
0
 62
     9
 10
0.0
 20
0.0
 30
0.0
 70
   128
 71
    37
 72
    68
 73
    19
  0
SEQEND
  5
55A
  8
0
 62
     9
  0
ENDBLK
  5
55D
  8
0
  0
BLOCK
  8
0
  2
41
 70
     0
 10
0.0
 20
0.0
 30
0.0
  3
41
  1

  0
POLYLINE
  5
55F
  8
0
 62
     9
 66
     1
 10
0.0
 20
0.0
 30
0.0
 70
    64
 71
    77
 72
   118
  0
VERTEX
  5
560
  8
0
 10
-3.799019336700439
 20
189.7980041503906
 30
35.78018951416016
 70
   192
  0
VERTEX
  5
561
  8
0
 10
-3.156664848327637
 20
184.2045593261719
 30
36.12618637084961
 70
   192
  0
VERTEX
  5
562
  8
0
 10
-5.51474666595459
 20
188.9002227783203
 30
35.78018951416016
 70
   192
  0
VERTEX
  5
563
  8
0
 10
-0.0000000000000171
 20
190.5
 30
35.78018951416016
 70
   192
  0
VERTEX
  5
564
  8
0
 10
-0.0000000000000171
 20
185.2550659179688
 30
36.12618637084961
 70
   192
  0
VERTEX
  5
565
  8
0
 10
-1.931303858757019
 20
190.3216247558594
 30
35.78018951416016
 70
   192
  0
VERTEX
  5
566
  8
0
 10
-8.38096809387207
 20
186.3265533447266
 30
35.78018951416016
 70
   192
  0
VERTEX
  5
567
  8
0
 10
-7.076776027679443
 20
187.7579498291016
 30
35.78018951416016
 70
   192
  0
VERTEX
  5
568
  8
0
 10
-10.09957504272461
 20
182.8725280761719
 30
35.78018951416016
 70
   192
  0
VERTEX
  5
569
  8
0
 10
-5.255060195922852
 20
180.0
 30
36.12618637084961
 70
   192
  0
VERTEX
  5
56A
  8
0
 10
-10.45528984069824
 20
180.9672698974609
 30
35.78018951416016
 70
   192
  0
VERTEX
  5
56B
  8
0
 10
-9.400630950927734
 20
184.6781616210938
 30
35.78018951416016
 70
   192
  0
VERTEX
  5
56C
  8
0
 10
-3.150083541870117
 20
175.7972259521484
 30
36.12618637084961
 70
   192
  0
VERTEX
  5
56D
  8
0
 10
-8.378889083862305
 20
173.6736755371094
 30
35.78018951416016
 70
   192
  0
VERTEX
  5
56E
  8
0
 10
-9.398111343383789
 20
175.3194580078125
 30
35.78018951416016
 70
   192
  0
VERTEX
  5
56F
  8
0
 10
-10.45500373840332
 20
179.0302429199219
 30
35.78018951416016
 70
   192
  0
VERTEX
  5
570
  8
0
 10
-10.09861946105957
 20
177.1262664794922
 30
35.78018951416016
 70
   192
  0
VERTEX
  5
571
  8
0
 10
-0.0000000000000183
 20
169.5
 30
35.78018951416016
 70
   192
  0
VERTEX
  5
572
  8
0
 10
-1.927934527397156
 20
169.6793060302734
 30
35.78018951416016
 70
   192
  0
VERTEX
  5
573
  8
0
 10
-0.0000000000000165
 20
174.7449340820312
 30
36.12618637084961
 70
   192
  0
VERTEX
  5
574
  8
0
 10
-0.0000000000000172
 20
180.0
 30
36.24215698242188
 70
   192
  0
VERTEX
  5
575
  8
0
 10
-7.072309970855713
 20
172.2429656982422
 30
35.78018951416016
 70
   192
  0
VERTEX
  5
576
  8
0
 10
-5.523871421813965
 20
171.077880859375
 30
35.78018951416016
 70
   192
  0
VERTEX
  5
577
  8
0
 10
-3.790518283843994
 20
170.2143096923828
 30
35.78018951416016
 70
   192
  0
VERTEX
  5
578
  8
0
 10
-10.45500373840332
 20
180.9697570800781
 30
34.62137985229492
 70
   192
  0
VERTEX
  5
579
  8
0
 10
-10.45528984069824
 20
179.0327301025391
 30
34.62137985229492
 70
   192
  0
VERTEX
  5
57A
  8
0
 10
-10.09861946105957
 20
182.8737335205078
 30
34.62137985229492
 70
   192
  0
VERTEX
  5
57B
  8
0
 10
-9.398111343383789
 20
184.6805419921875
 30
34.62137985229492
 70
   192
  0
VERTEX
  5
57C
  8
0
 10
-8.378889083862305
 20
186.3263244628906
 30
34.62137985229492
 70
   192
  0
VERTEX
  5
57D
  8
0
 10
-7.072309970855713
 20
187.7570343017578
 30
34.62137985229492
 70
   192
  0
VERTEX
  5
57E
  8
0
 10
-5.523871421813965
 20
188.922119140625
 30
34.62137985229492
 70
   192
  0
VERTEX
  5
57F
  8
0
 10
-3.790518283843994
 20
189.7856903076172
 30
34.62137985229492
 70
   192
  0
VERTEX
  5
580
  8
0
 10
-1.927934527397156
 20
190.3206939697266
 30
34.62137985229492
 70
   192
  0
VERTEX
  5
581
  8
0
 10
-0.0000000000000167
 20
190.5
 30
34.62137985229492
 70
   192
  0
VERTEX
  5
582
  8
0
 10
-10.09957504272461
 20
177.1274719238281
 30
34.62137985229492
 70
   192
  0
VERTEX
  5
583
  8
0
 10
-9.400630950927734
 20
175.3218383789062
 30
34.62137985229492
 70
   192
  0
VERTEX
  5
584
  8
0
 10
-8.38096809387207
 20
173.6734466552734
 30
34.62137985229492
 70
   192
  0
VERTEX
  5
585
  8
0
 10
-7.076776027679443
 20
172.2420501708984
 30
34.62137985229492
 70
   192
  0
VERTEX
  5
586
  8
0
 10
-5.51474666595459
 20
171.0997772216797
 30
34.62137985229492
 70
   192
  0
VERTEX
  5
587
  8
0
 10
-3.799019336700439
 20
170.2019958496094
 30
34.62137985229492
 70
   192
  0
VERTEX
  5
588
  8
0
 10
-1.931303858757019
 20
169.6783752441406
 30
34.62137985229492
 70
   192
  0
VERTEX
  5
589
  8
0
 10
-0.0000000000000155
 20
169.5
 30
34.62137985229492
 70
   192
  0
VERTEX
  5
58A
  8
0
 10
1.931303858757019
 20
190.3216247558594
 30
35.78018951416016
 70
   192
  0
VERTEX
  5
58B
  8
0
 10
7.076776027679443
 20
187.7579498291016
 30
35.78018951416016
 70
   192
  0
VERTEX
  5
58C
  8
0
 10
5.51474666595459
 20
188.9002227783203
 30
35.78018951416016
 70
   192
  0
VERTEX
  5
58D
  8
0
 10
7.076776027679443
 20
187.7579498291016
 30
34.62137985229492
 70
   192
  0
VERTEX
  5
58E
  8
0
 10
3.799019336700439
 20
189.7980041503906
 30
35.78018951416016
 70
   192
  0
VERTEX
  5
58F
  8
0
 10
3.799019336700439
 20
189.7980041503906
 30
34.62137985229492
 70
   192
  0
VERTEX
  5
590
  8
0
 10
5.51474666595459
 20
188.9002227783203
 30
34.62137985229492
 70
   192
  0
VERTEX
  5
591
  8
0
 10
10.09957504272461
 20
182.8725280761719
 30
35.78018951416016
 70
   192
  0
VERTEX
  5
592
  8
0
 10
10.09957504272461
 20
182.8725280761719
 30
34.62137985229492
 70
   192
  0
VERTEX
  5
593
  8
0
 10
10.45528984069824
 20
180.9672698974609
 30
35.78018951416016
 70
   192
  0
VERTEX
  5
594
  8
0
 10
9.400630950927734
 20
184.6781616210938
 30
35.78018951416016
 70
   192
  0
VERTEX
  5
595
  8
0
 10
8.38096809387207
 20
186.3265533447266
 30
34.62137985229492
 70
   192
  0
VERTEX
  5
596
  8
0
 10
9.400630950927734
 20
184.6781616210938
 30
34.62137985229492
 70
   192
  0
VERTEX
  5
597
  8
0
 10
9.398111343383789
 20
175.3194580078125
 30
35.78018951416016
 70
   192
  0
VERTEX
  5
598
  8
0
 10
10.09861946105957
 20
177.1262664794922
 30
35.78018951416016
 70
   192
  0
VERTEX
  5
599
  8
0
 10
10.09861946105957
 20
177.1262664794922
 30
34.62137985229492
 70
   192
  0
VERTEX
  5
59A
  8
0
 10
10.45500373840332
 20
179.0302429199219
 30
34.62137985229492
 70
   192
  0
VERTEX
  5
59B
  8
0
 10
10.45500373840332
 20
179.0302429199219
 30
35.78018951416016
 70
   192
  0
VERTEX
  5
59C
  8
0
 10
10.45528984069824
 20
180.9672698974609
 30
34.62137985229492
 70
   192
  0
VERTEX
  5
59D
  8
0
 10
7.072309970855713
 20
172.2429656982422
 30
35.78018951416016
 70
   192
  0
VERTEX
  5
59E
  8
0
 10
8.378889083862305
 20
173.6736755371094
 30
35.78018951416016
 70
   192
  0
VERTEX
  5
59F
  8
0
 10
8.378889083862305
 20
173.6736755371094
 30
34.62137985229492
 70
   192
  0
VERTEX
  5
5A0
  8
0
 10
9.398111343383789
 20
175.3194580078125
 30
34.62137985229492
 70
   192
  0
VERTEX
  5
5A1
  8
0
 10
5.523871421813965
 20
171.077880859375
 30
34.62137985229492
 70
   192
  0
VERTEX
  5
5A2
  8
0
 10
5.523871421813965
 20
171.077880859375
 30
35.78018951416016
 70
   192
  0
VERTEX
  5
5A3
  8
0
 10
7.072309970855713
 20
172.2429656982422
 30
34.62137985229492
 70
   192
  0
VERTEX
  5
5A4
  8
0
 10
3.790518283843994
 20
170.2143096923828
 30
34.62137985229492
 70
   192
  0
VERTEX
  5
5A5
  8
0
 10
3.790518283843994
 20
170.2143096923828
 30
35.78018951416016
 70
   192
  0
VERTEX
  5
5A6
  8
0
 10
1.927934527397156
 20
169.6793060302734
 30
35.78018951416016
 70
   192
  0
VERTEX
  5
5A7
  8
0
 10
1.927934527397156
 20
169.6793060302734
 30
34.62137985229492
 70
   192
  0
VERTEX
  5
5A8
  8
0
 10
8.38096809387207
 20
186.3265533447266
 30
35.78018951416016
 70
   192
  0
VERTEX
  5
5A9
  8
0
 10
1.931303858757019
 20
190.3216247558594
 30
34.62137985229492
 70
   192
  0
VERTEX
  5
5AA
  8
0
 10
3.156664848327637
 20
175.7954406738281
 30
36.12618637084961
 70
   192
  0
VERTEX
  5
5AB
  8
0
 10
5.255060195922852
 20
180.0
 30
36.12618637084961
 70
   192
  0
VERTEX
  5
5AC
  8
0
 10
3.150083541870117
 20
184.2027740478516
 30
36.12618637084961
 70
   192
  0
VERTEX
  5
5AD
  8
0
 62
     9
 10
0.0
 20
0.0
 30
0.0
 70
   128
 71
     3
 72
     2
 73
     1
  0
VERTEX
  5
5AE
  8
0
 62
     9
 10
0.0
 20
0.0
 30
0.0
 70
   128
 71
     6
 72
     5
 73
     4
  0
VERTEX
  5
5AF
  8
0
 62
     9
 10
0.0
 20
0.0
 30
0.0
 70
   128
 71
     2
 72
     8
 73
     7
  0
VERTEX
  5
5B0
  8
0
 62
     9
 10
0.0
 20
0.0
 30
0.0
 70
   128
 71
    11
 72
    10
 73
     9
  0
VERTEX
  5
5B1
  8
0
 62
     9
 10
0.0
 20
0.0
 30
0.0
 70
   128
 71
     7
 72
    10
 73
     2
  0
VERTEX
  5
5B2
  8
0
 62
     9
 10
0.0
 20
0.0
 30
0.0
 70
   128
 71
     2
 72
     6
 73
     1
  0
VERTEX
  5
5B3
  8
0
 62
     9
 10
0.0
 20
0.0
 30
0.0
 70
   128
 71
     9
 72
    10
 73
    12
  0
VERTEX
  5
5B4
  8
0
 62
     9
 10
0.0
 20
0.0
 30
0.0
 70
   128
 71
    12
 72
    10
 73
     7
  0
VERTEX
  5
5B5
  8
0
 62
     9
 10
0.0
 20
0.0
 30
0.0
 70
   128
 71
     5
 72
     6
 73
     2
  0
VERTEX
  5
5B6
  8
0
 62
     9
 10
0.0
 20
0.0
 30
0.0
 70
   128
 71
    15
 72
    14
 73
    13
  0
VERTEX
  5
5B7
  8
0
 62
     9
 10
0.0
 20
0.0
 30
0.0
 70
   128
 71
    11
 72
    16
 73
    10
  0
VERTEX
  5
5B8
  8
0
 62
     9
 10
0.0
 20
0.0
 30
0.0
 70
   128
 71
    10
 72
    15
 73
    13
  0
VERTEX
  5
5B9
  8
0
 62
     9
 10
0.0
 20
0.0
 30
0.0
 70
   128
 71
    10
 72
    17
 73
    15
  0
VERTEX
  5
5BA
  8
0
 62
     9
 10
0.0
 20
0.0
 30
0.0
 70
   128
 71
    20
 72
    19
 73
    18
  0
VERTEX
  5
5BB
  8
0
 62
     9
 10
0.0
 20
0.0
 30
0.0
 70
   128
 71
    13
 72
    20
 73
    21
  0
VERTEX
  5
5BC
  8
0
 62
     9
 10
0.0
 20
0.0
 30
0.0
 70
   128
 71
    14
 72
    22
 73
    13
  0
VERTEX
  5
5BD
  8
0
 62
     9
 10
0.0
 20
0.0
 30
0.0
 70
   128
 71
    23
 72
    13
 73
    22
  0
VERTEX
  5
5BE
  8
0
 62
     9
 10
0.0
 20
0.0
 30
0.0
 70
   128
 71
    13
 72
    24
 73
    20
  0
VERTEX
  5
5BF
  8
0
 62
     9
 10
0.0
 20
0.0
 30
0.0
 70
   128
 71
    24
 72
    13
 73
    23
  0
VERTEX
  5
5C0
  8
0
 62
     9
 10
0.0
 20
0.0
 30
0.0
 70
   128
 71
    24
 72
    19
 73
    20
  0
VERTEX
  5
5C1
  8
0
 62
     9
 10
0.0
 20
0.0
 30
0.0
 70
   128
 71
    10
 72
    16
 73
    17
  0
VERTEX
  5
5C2
  8
0
 62
     9
 10
0.0
 20
0.0
 30
0.0
 70
   128
 71
    13
 72
    21
 73
    10
  0
VERTEX
  5
5C3
  8
0
 62
     9
 10
0.0
 20
0.0
 30
0.0
 70
   128
 71
     8
 72
     2
 73
     3
  0
VERTEX
  5
5C4
  8
0
 62
     9
 10
0.0
 20
0.0
 30
0.0
 70
   128
 71
    21
 72
     2
 73
    10
  0
VERTEX
  5
5C5
  8
0
 62
     9
 10
0.0
 20
0.0
 30
0.0
 70
   128
 71
     5
 72
     2
 73
    21
  0
VERTEX
  5
5C6
  8
0
 62
     9
 10
0.0
 20
0.0
 30
0.0
 70
   128
 71
    26
 72
    11
 73
    25
  0
VERTEX
  5
5C7
  8
0
 62
     9
 10
0.0
 20
0.0
 30
0.0
 70
   128
 71
    27
 72
    25
 73
     9
  0
VERTEX
  5
5C8
  8
0
 62
     9
 10
0.0
 20
0.0
 30
0.0
 70
   128
 71
    11
 72
     9
 73
    25
  0
VERTEX
  5
5C9
  8
0
 62
     9
 10
0.0
 20
0.0
 30
0.0
 70
   128
 71
    12
 72
    28
 73
    27
  0
VERTEX
  5
5CA
  8
0
 62
     9
 10
0.0
 20
0.0
 30
0.0
 70
   128
 71
    27
 72
     9
 73
    12
  0
VERTEX
  5
5CB
  8
0
 62
     9
 10
0.0
 20
0.0
 30
0.0
 70
   128
 71
    28
 72
     7
 73
    29
  0
VERTEX
  5
5CC
  8
0
 62
     9
 10
0.0
 20
0.0
 30
0.0
 70
   128
 71
     7
 72
    28
 73
    12
  0
VERTEX
  5
5CD
  8
0
 62
     9
 10
0.0
 20
0.0
 30
0.0
 70
   128
 71
    30
 72
    29
 73
     8
  0
VERTEX
  5
5CE
  8
0
 62
     9
 10
0.0
 20
0.0
 30
0.0
 70
   128
 71
     7
 72
     8
 73
    29
  0
VERTEX
  5
5CF
  8
0
 62
     9
 10
0.0
 20
0.0
 30
0.0
 70
   128
 71
     8
 72
     3
 73
    31
  0
VERTEX
  5
5D0
  8
0
 62
     9
 10
0.0
 20
0.0
 30
0.0
 70
   128
 71
    31
 72
    30
 73
     8
  0
VERTEX
  5
5D1
  8
0
 62
     9
 10
0.0
 20
0.0
 30
0.0
 70
   128
 71
    32
 72
     3
 73
     1
  0
VERTEX
  5
5D2
  8
0
 62
     9
 10
0.0
 20
0.0
 30
0.0
 70
   128
 71
     3
 72
    32
 73
    31
  0
VERTEX
  5
5D3
  8
0
 62
     9
 10
0.0
 20
0.0
 30
0.0
 70
   128
 71
     6
 72
    33
 73
     1
  0
VERTEX
  5
5D4
  8
0
 62
     9
 10
0.0
 20
0.0
 30
0.0
 70
   128
 71
    32
 72
     1
 73
    33
  0
VERTEX
  5
5D5
  8
0
 62
     9
 10
0.0
 20
0.0
 30
0.0
 70
   128
 71
    33
 72
     6
 73
     4
  0
VERTEX
  5
5D6
  8
0
 62
     9
 10
0.0
 20
0.0
 30
0.0
 70
   128
 71
    34
 72
    33
 73
     4
  0
VERTEX
  5
5D7
  8
0
 62
     9
 10
0.0
 20
0.0
 30
0.0
 70
   128
 71
    26
 72
    16
 73
    11
  0
VERTEX
  5
5D8
  8
0
 62
     9
 10
0.0
 20
0.0
 30
0.0
 70
   128
 71
    35
 72
    17
 73
    16
  0
VERTEX
  5
5D9
  8
0
 62
     9
 10
0.0
 20
0.0
 30
0.0
 70
   128
 71
    16
 72
    26
 73
    35
  0
VERTEX
  5
5DA
  8
0
 62
     9
 10
0.0
 20
0.0
 30
0.0
 70
   128
 71
    17
 72
    36
 73
    15
  0
VERTEX
  5
5DB
  8
0
 62
     9
 10
0.0
 20
0.0
 30
0.0
 70
   128
 71
    36
 72
    17
 73
    35
  0
VERTEX
  5
5DC
  8
0
 62
     9
 10
0.0
 20
0.0
 30
0.0
 70
   128
 71
    14
 72
    15
 73
    37
  0
VERTEX
  5
5DD
  8
0
 62
     9
 10
0.0
 20
0.0
 30
0.0
 70
   128
 71
    36
 72
    37
 73
    15
  0
VERTEX
  5
5DE
  8
0
 62
     9
 10
0.0
 20
0.0
 30
0.0
 70
   128
 71
    38
 72
    22
 73
    14
  0
VERTEX
  5
5DF
  8
0
 62
     9
 10
0.0
 20
0.0
 30
0.0
 70
   128
 71
    14
 72
    37
 73
    38
  0
VERTEX
  5
5E0
  8
0
 62
     9
 10
0.0
 20
0.0
 30
0.0
 70
   128
 71
    23
 72
    38
 73
    39
  0
VERTEX
  5
5E1
  8
0
 62
     9
 10
0.0
 20
0.0
 30
0.0
 70
   128
 71
    38
 72
    23
 73
    22
  0
VERTEX
  5
5E2
  8
0
 62
     9
 10
0.0
 20
0.0
 30
0.0
 70
   128
 71
    40
 72
    24
 73
    39
  0
VERTEX
  5
5E3
  8
0
 62
     9
 10
0.0
 20
0.0
 30
0.0
 70
   128
 71
    23
 72
    39
 73
    24
  0
VERTEX
  5
5E4
  8
0
 62
     9
 10
0.0
 20
0.0
 30
0.0
 70
   128
 71
    40
 72
    41
 73
    19
  0
VERTEX
  5
5E5
  8
0
 62
     9
 10
0.0
 20
0.0
 30
0.0
 70
   128
 71
    19
 72
    24
 73
    40
  0
VERTEX
  5
5E6
  8
0
 62
     9
 10
0.0
 20
0.0
 30
0.0
 70
   128
 71
    42
 72
    19
 73
    41
  0
VERTEX
  5
5E7
  8
0
 62
     9
 10
0.0
 20
0.0
 30
0.0
 70
   128
 71
    42
 72
    18
 73
    19
  0
VERTEX
  5
5E8
  8
0
 62
     9
 10
0.0
 20
0.0
 30
0.0
 70
   128
 71
    34
 72
     4
 73
    43
  0
VERTEX
  5
5E9
  8
0
 62
     9
 10
0.0
 20
0.0
 30
0.0
 70
   128
 71
    46
 72
    45
 73
    44
  0
VERTEX
  5
5EA
  8
0
 62
     9
 10
0.0
 20
0.0
 30
0.0
 70
   128
 71
    49
 72
    48
 73
    47
  0
VERTEX
  5
5EB
  8
0
 62
     9
 10
0.0
 20
0.0
 30
0.0
 70
   128
 71
    52
 72
    51
 73
    50
  0
VERTEX
  5
5EC
  8
0
 62
     9
 10
0.0
 20
0.0
 30
0.0
 70
   128
 71
    55
 72
    54
 73
    53
  0
VERTEX
  5
5ED
  8
0
 62
     9
 10
0.0
 20
0.0
 30
0.0
 70
   128
 71
    58
 72
    57
 73
    56
  0
VERTEX
  5
5EE
  8
0
 62
     9
 10
0.0
 20
0.0
 30
0.0
 70
   128
 71
    61
 72
    60
 73
    59
  0
VERTEX
  5
5EF
  8
0
 62
     9
 10
0.0
 20
0.0
 30
0.0
 70
   128
 71
    64
 72
    63
 73
    62
  0
VERTEX
  5
5F0
  8
0
 62
     9
 10
0.0
 20
0.0
 30
0.0
 70
   128
 71
    56
 72
    63
 73
    65
  0
VERTEX
  5
5F1
  8
0
 62
     9
 10
0.0
 20
0.0
 30
0.0
 70
   128
 71
    67
 72
    66
 73
    62
  0
VERTEX
  5
5F2
  8
0
 62
     9
 10
0.0
 20
0.0
 30
0.0
 70
   128
 71
    68
 72
    62
 73
    66
  0
VERTEX
  5
5F3
  8
0
 62
     9
 10
0.0
 20
0.0
 30
0.0
 70
   128
 71
    67
 72
    70
 73
    69
  0
VERTEX
  5
5F4
  8
0
 62
     9
 10
0.0
 20
0.0
 30
0.0
 70
   128
 71
    69
 72
    66
 73
    67
  0
VERTEX
  5
5F5
  8
0
 62
     9
 10
0.0
 20
0.0
 30
0.0
 70
   128
 71
    72
 72
    70
 73
    71
  0
VERTEX
  5
5F6
  8
0
 62
     9
 10
0.0
 20
0.0
 30
0.0
 70
   128
 71
    70
 72
    72
 73
    69
  0
VERTEX
  5
5F7
  8
0
 62
     9
 10
0.0
 20
0.0
 30
0.0
 70
   128
 71
    42
 72
    72
 73
    18
  0
VERTEX
  5
5F8
  8
0
 62
     9
 10
0.0
 20
0.0
 30
0.0
 70
   128
 71
    71
 72
    18
 73
    72
  0
VERTEX
  5
5F9
  8
0
 62
     9
 10
0.0
 20
0.0
 30
0.0
 70
   128
 71
    65
 72
    63
 73
    64
  0
VERTEX
  5
5FA
  8
0
 62
     9
 10
0.0
 20
0.0
 30
0.0
 70
   128
 71
    64
 72
    62
 73
    68
  0
VERTEX
  5
5FB
  8
0
 62
     9
 10
0.0
 20
0.0
 30
0.0
 70
   128
 71
    57
 72
    58
 73
    59
  0
VERTEX
  5
5FC
  8
0
 62
     9
 10
0.0
 20
0.0
 30
0.0
 70
   128
 71
    58
 72
    56
 73
    65
  0
VERTEX
  5
5FD
  8
0
 62
     9
 10
0.0
 20
0.0
 30
0.0
 70
   128
 71
    61
 72
    52
 73
    60
  0
VERTEX
  5
5FE
  8
0
 62
     9
 10
0.0
 20
0.0
 30
0.0
 70
   128
 71
    59
 72
    60
 73
    57
  0
VERTEX
  5
5FF
  8
0
 62
     9
 10
0.0
 20
0.0
 30
0.0
 70
   128
 71
    51
 72
    55
 73
    50
  0
VERTEX
  5
600
  8
0
 62
     9
 10
0.0
 20
0.0
 30
0.0
 70
   128
 71
    61
 72
    51
 73
    52
  0
VERTEX
  5
601
  8
0
 62
     9
 10
0.0
 20
0.0
 30
0.0
 70
   128
 71
    53
 72
    54
 73
    73
  0
VERTEX
  5
602
  8
0
 62
     9
 10
0.0
 20
0.0
 30
0.0
 70
   128
 71
    50
 72
    55
 73
    53
  0
VERTEX
  5
603
  8
0
 62
     9
 10
0.0
 20
0.0
 30
0.0
 70
   128
 71
    46
 72
    44
 73
    73
  0
VERTEX
  5
604
  8
0
 62
     9
 10
0.0
 20
0.0
 30
0.0
 70
   128
 71
    73
 72
    54
 73
    46
  0
VERTEX
  5
605
  8
0
 62
     9
 10
0.0
 20
0.0
 30
0.0
 70
   128
 71
    49
 72
    47
 73
    45
  0
VERTEX
  5
606
  8
0
 62
     9
 10
0.0
 20
0.0
 30
0.0
 70
   128
 71
    49
 72
    45
 73
    46
  0
VERTEX
  5
607
  8
0
 62
     9
 10
0.0
 20
0.0
 30
0.0
 70
   128
 71
    48
 72
    74
 73
    43
  0
VERTEX
  5
608
  8
0
 62
     9
 10
0.0
 20
0.0
 30
0.0
 70
   128
 71
    48
 72
    43
 73
    47
  0
VERTEX
  5
609
  8
0
 62
     9
 10
0.0
 20
0.0
 30
0.0
 70
   128
 71
    43
 72
    74
 73
    34
  0
VERTEX
  5
60A
  8
0
 62
     9
 10
0.0
 20
0.0
 30
0.0
 70
   128
 71
    67
 72
    75
 73
    70
  0
VERTEX
  5
60B
  8
0
 62
     9
 10
0.0
 20
0.0
 30
0.0
 70
   128
 71
    71
 72
    20
 73
    18
  0
VERTEX
  5
60C
  8
0
 62
     9
 10
0.0
 20
0.0
 30
0.0
 70
   128
 71
    75
 72
    62
 73
    63
  0
VERTEX
  5
60D
  8
0
 62
     9
 10
0.0
 20
0.0
 30
0.0
 70
   128
 71
    60
 72
    76
 73
    57
  0
VERTEX
  5
60E
  8
0
 62
     9
 10
0.0
 20
0.0
 30
0.0
 70
   128
 71
    63
 72
    76
 73
    75
  0
VERTEX
  5
60F
  8
0
 62
     9
 10
0.0
 20
0.0
 30
0.0
 70
   128
 71
    75
 72
    71
 73
    70
  0
VERTEX
  5
610
  8
0
 62
     9
 10
0.0
 20
0.0
 30
0.0
 70
   128
 71
    57
 72
    76
 73
    56
  0
VERTEX
  5
611
  8
0
 62
     9
 10
0.0
 20
0.0
 30
0.0
 70
   128
 71
    56
 72
    76
 73
    63
  0
VERTEX
  5
612
  8
0
 62
     9
 10
0.0
 20
0.0
 30
0.0
 70
   128
 71
    20
 72
    71
 73
    75
  0
VERTEX
  5
613
  8
0
 62
     9
 10
0.0
 20
0.0
 30
0.0
 70
   128
 71
    53
 72
    73
 73
    77
  0
VERTEX
  5
614
  8
0
 62
     9
 10
0.0
 20
0.0
 30
0.0
 70
   128
 71
    60
 72
    52
 73
    76
  0
VERTEX
  5
615
  8
0
 62
     9
 10
0.0
 20
0.0
 30
0.0
 70
   128
 71
    76
 72
    53
 73
    77
  0
VERTEX
  5
616
  8
0
 62
     9
 10
0.0
 20
0.0
 30
0.0
 70
   128
 71
    76
 72
    50
 73
    53
  0
VERTEX
  5
617
  8
0
 62
     9
 10
0.0
 20
0.0
 30
0.0
 70
   128
 71
     5
 72
    43
 73
     4
  0
VERTEX
  5
618
  8
0
 62
     9
 10
0.0
 20
0.0
 30
0.0
 70
   128
 71
    77
 72
     5
 73
    21
  0
VERTEX
  5
619
  8
0
 62
     9
 10
0.0
 20
0.0
 30
0.0
 70
   128
 71
    73
 72
    44
 73
    77
  0
VERTEX
  5
61A
  8
0
 62
     9
 10
0.0
 20
0.0
 30
0.0
 70
   128
 71
    45
 72
    77
 73
    44
  0
VERTEX
  5
61B
  8
0
 62
     9
 10
0.0
 20
0.0
 30
0.0
 70
   128
 71
    77
 72
    47
 73
     5
  0
VERTEX
  5
61C
  8
0
 62
     9
 10
0.0
 20
0.0
 30
0.0
 70
   128
 71
    47
 72
    77
 73
    45
  0
VERTEX
  5
61D
  8
0
 62
     9
 10
0.0
 20
0.0
 30
0.0
 70
   128
 71
    47
 72
    43
 73
     5
  0
VERTEX
  5
61E
  8
0
 62
     9
 10
0.0
 20
0.0
 30
0.0
 70
   128
 71
    76
 72
    52
 73
    50
  0
VERTEX
  5
61F
  8
0
 62
     9
 10
0.0
 20
0.0
 30
0.0
 70
   128
 71
    77
 72
    21
 73
    76
  0
VERTEX
  5
620
  8
0
 62
     9
 10
0.0
 20
0.0
 30
0.0
 70
   128
 71
    62
 72
    75
 73
    67
  0
VERTEX
  5
621
  8
0
 62
     9
 10
0.0
 20
0.0
 30
0.0
 70
   128
 71
    21
 72
    75
 73
    76
  0
VERTEX
  5
622
  8
0
 62
     9
 10
0.0
 20
0.0
 30
0.0
 70
   128
 71
    20
 72
    75
 73
    21
  0
SEQEND
  5
623
  8
0
 62
     9
  0
ENDBLK
  5
626
  8
0
  0
BLOCK
  8
0
  2
42
 70
     0
 10
0.0
 20
0.0
 30
0.0
  3
42
  1

  0
POLYLINE
  5
628
  8
0
 62
     9
 66
     1
 10
0.0
 20
0.0
 30
0.0
 70
    64
 71
   107
 72
   176
  0
VERTEX
  5
629
  8
0
 10
-5.11749792098999
 20
170.7173461914062
 30
35.26778411865234
 70
   192
  0
VERTEX
  5
62A
  8
0
 10
7.191157341003418
 20
187.7866821289062
 30
35.26778411865234
 70
   192
  0
VERTEX
  5
62B
  8
0
 10
9.984347343444824
 20
183.5600280761719
 30
35.26778411865234
 70
   192
  0
VERTEX
  5
62C
  8
0
 10
-2.322502613067627
 20
190.3417205810547
 30
35.26778411865234
 70
   192
  0
VERTEX
  5
62D
  8
0
 10
-9.830706596374512
 20
183.9632568359375
 30
35.26778411865234
 70
   192
  0
VERTEX
  5
62E
  8
0
 10
-6.864559173583984
 20
188.0766754150391
 30
35.26778411865234
 70
   192
  0
VERTEX
  5
62F
  8
0
 10
2.743481874465942
 20
190.2388153076172
 30
35.26778411865234
 70
   192
  0
VERTEX
  5
630
  8
0
 10
-10.54656028747559
 20
178.9394226074219
 30
35.26778411865234
 70
   192
  0
VERTEX
  5
631
  8
0
 10
-8.845444679260254
 20
174.1592559814453
 30
35.26778411865234
 70
   192
  0
VERTEX
  5
632
  8
0
 10
4.733142852783203
 20
170.5156555175781
 30
35.26778411865234
 70
   192
  0
VERTEX
  5
633
  8
0
 10
10.49383163452148
 20
178.5068054199219
 30
35.26778411865234
 70
   192
  0
VERTEX
  5
634
  8
0
 10
8.601189613342285
 20
173.8047027587891
 30
35.26778411865234
 70
   192
  0
VERTEX
  5
635
  8
0
 10
-0.2150535583496094
 20
169.4021453857422
 30
35.26778411865234
 70
   192
  0
VERTEX
  5
636
  8
0
 10
-24.52515983581543
 20
163.3344573974609
 30
31.48235130310059
 70
   192
  0
VERTEX
  5
637
  8
0
 10
-25.56093978881836
 20
164.9794769287109
 30
32.13033294677734
 70
   192
  0
VERTEX
  5
638
  8
0
 10
-20.87316703796387
 20
158.948486328125
 30
32.13033294677734
 70
   192
  0
VERTEX
  5
639
  8
0
 10
-27.28376197814941
 20
168.3909301757812
 30
31.48235130310059
 70
   192
  0
VERTEX
  5
63A
  8
0
 10
-28.54795837402344
 20
172.0032806396484
 30
32.13033294677734
 70
   192
  0
VERTEX
  5
63B
  8
0
 10
-10.15320873260498
 20
152.1436462402344
 30
32.13033294677734
 70
   192
  0
VERTEX
  5
63C
  8
0
 10
-11.26963520050049
 20
152.5566253662109
 30
31.48235130310059
 70
   192
  0
VERTEX
  5
63D
  8
0
 10
-14.82418823242188
 20
154.3237609863281
 30
32.13033294677734
 70
   192
  0
VERTEX
  5
63E
  8
0
 10
-16.33480644226074
 20
155.3165130615234
 30
31.48235130310059
 70
   192
  0
VERTEX
  5
63F
  8
0
 10
-5.743075370788574
 20
150.9088897705078
 30
31.48235130310059
 70
   192
  0
VERTEX
  5
640
  8
0
 10
-5.158271312713623
 20
150.803466796875
 30
32.13033294677734
 70
   192
  0
VERTEX
  5
641
  8
0
 10
-0.00000015910841
 20
150.7293701171875
 30
32.61522674560547
 70
   192
  0
VERTEX
  5
642
  8
0
 10
-20.83590507507324
 20
158.9016265869141
 30
31.48235130310059
 70
   192
  0
VERTEX
  5
643
  8
0
 10
-29.01406097412109
 20
173.8921966552734
 30
31.48235130310059
 70
   192
  0
VERTEX
  5
644
  8
0
 10
-29.64754867553711
 20
179.6177520751953
 30
31.48235130310059
 70
   192
  0
VERTEX
  5
645
  8
0
 10
-14.63598346710205
 20
154.6497344970703
 30
32.61522674560547
 70
   192
  0
VERTEX
  5
646
  8
0
 10
-7.528080463409424
 20
151.7120971679688
 30
32.61522674560547
 70
   192
  0
VERTEX
  5
647
  8
0
 10
-10.07275485992432
 20
162.4112701416016
 30
34.51602554321289
 70
   192
  0
VERTEX
  5
648
  8
0
 10
-20.61197853088379
 20
159.2196350097656
 30
32.61522674560547
 70
   192
  0
VERTEX
  5
649
  8
0
 10
-14.23462009429932
 20
165.5775451660156
 30
34.51602554321289
 70
   192
  0
VERTEX
  5
64A
  8
0
 10
-5.300000190734863
 20
170.8201293945312
 30
35.22354125976562
 70
   192
  0
VERTEX
  5
64B
  8
0
 10
-7.819737434387207
 20
172.0567626953125
 30
35.72137832641602
 70
   192
  0
VERTEX
  5
64C
  8
0
 10
-17.48175239562988
 20
169.7426910400391
 30
34.51602554321289
 70
   192
  0
VERTEX
  5
64D
  8
0
 10
-9.613761901855469
 20
174.3591918945312
 30
35.72137832641602
 70
   192
  0
VERTEX
  5
64E
  8
0
 10
-25.2468376159668
 20
165.1865844726562
 30
32.61522674560547
 70
   192
  0
VERTEX
  5
64F
  8
0
 10
-0.000000000000019
 20
159.731201171875
 30
34.51602554321289
 70
   192
  0
VERTEX
  5
650
  8
0
 10
-5.185071468353271
 20
160.4105529785156
 30
34.51602554321289
 70
   192
  0
VERTEX
  5
651
  8
0
 10
-2.912250995635986
 20
169.24072265625
 30
35.72137832641602
 70
   192
  0
VERTEX
  5
652
  8
0
 10
-0.0000000000000193
 20
168.8535614013672
 30
35.72137832641602
 70
   192
  0
VERTEX
  5
653
  8
0
 10
11.34917545318604
 20
161.0965881347656
 30
34.06100082397461
 70
   192
  0
VERTEX
  5
654
  8
0
 10
13.15108585357666
 20
157.9755859375
 30
33.32920074462891
 70
   192
  0
VERTEX
  5
655
  8
0
 10
5.108876705169678
 20
160.3901977539062
 30
34.51602554321289
 70
   192
  0
VERTEX
  5
656
  8
0
 10
2.648198366165161
 20
169.1727142333984
 30
35.72137832641602
 70
   192
  0
VERTEX
  5
657
  8
0
 10
9.53774356842041
 20
164.2340698242188
 30
34.68154144287109
 70
   192
  0
VERTEX
  5
658
  8
0
 10
4.956498622894287
 20
150.7683715820312
 30
31.48235130310059
 70
   192
  0
VERTEX
  5
659
  8
0
 10
9.772348403930664
 20
152.0216064453125
 30
31.48235130310059
 70
   192
  0
VERTEX
  5
65A
  8
0
 10
14.31656455993652
 20
154.0562438964844
 30
31.48235130310059
 70
   192
  0
VERTEX
  5
65B
  8
0
 10
7.716787815093994
 20
167.3880615234375
 30
35.19082260131836
 70
   192
  0
VERTEX
  5
65C
  8
0
 10
5.541670799255371
 20
170.9639739990234
 30
35.22354125976562
 70
   192
  0
VERTEX
  5
65D
  8
0
 10
-1.979730486869812
 20
169.5879516601562
 30
35.22354125976562
 70
   192
  0
VERTEX
  5
65E
  8
0
 10
1.647605538368225
 20
169.5329437255859
 30
35.22354125976562
 70
   192
  0
VERTEX
  5
65F
  8
0
 10
-8.023797035217285
 20
173.0793762207031
 30
35.22354125976562
 70
   192
  0
VERTEX
  5
660
  8
0
 10
-10.59626960754395
 20
179.7187957763672
 30
35.22354125976562
 70
   192
  0
VERTEX
  5
661
  8
0
 10
-9.899582862854004
 20
176.2150268554688
 30
35.22354125976562
 70
   192
  0
VERTEX
  5
662
  8
0
 10
-10.67789363861084
 20
176.8022155761719
 30
35.72137832641602
 70
   192
  0
VERTEX
  5
663
  8
0
 10
12.49816131591797
 20
202.4013824462891
 30
33.32920074462891
 70
   192
  0
VERTEX
  5
664
  8
0
 10
10.10780143737793
 20
197.5072326660156
 30
34.11863327026367
 70
   192
  0
VERTEX
  5
665
  8
0
 10
15.25389766693115
 20
205.2820434570312
 30
31.48235130310059
 70
   192
  0
VERTEX
  5
666
  8
0
 10
8.884819030761719
 20
196.1428833007812
 30
34.68154144287109
 70
   192
  0
VERTEX
  5
667
  8
0
 10
7.063863754272461
 20
192.9889068603516
 30
35.19082260131836
 70
   192
  0
VERTEX
  5
668
  8
0
 10
10.69625186920166
 20
199.2803802490234
 30
34.06100082397461
 70
   192
  0
VERTEX
  5
669
  8
0
 10
5.075511455535889
 20
189.923828125
 30
35.72137832641602
 70
   192
  0
VERTEX
  5
66A
  8
0
 10
29.6441707611084
 20
179.4253234863281
 30
31.48235130310059
 70
   192
  0
VERTEX
  5
66B
  8
0
 10
19.60102462768555
 20
185.1298065185547
 30
34.51602554321289
 70
   192
  0
VERTEX
  5
66C
  8
0
 10
28.78326797485352
 20
187.1169586181641
 30
31.48235130310059
 70
   192
  0
VERTEX
  5
66D
  8
0
 10
10.34613800048828
 20
182.2899169921875
 30
35.22354125976562
 70
   192
  0
VERTEX
  5
66E
  8
0
 10
8.482697486877441
 20
186.3358612060547
 30
35.22354125976562
 70
   192
  0
VERTEX
  5
66F
  8
0
 10
15.03482818603516
 20
193.583740234375
 30
34.51602554321289
 70
   192
  0
VERTEX
  5
670
  8
0
 10
25.96193504333496
 20
194.3238067626953
 30
31.48235130310059
 70
   192
  0
VERTEX
  5
671
  8
0
 10
21.37179565429688
 20
200.5550537109375
 30
31.48235130310059
 70
   192
  0
VERTEX
  5
672
  8
0
 10
19.62023544311523
 20
174.9093017578125
 30
34.51602554321289
 70
   192
  0
VERTEX
  5
673
  8
0
 10
15.05801868438721
 20
166.4220275878906
 30
34.51602554321289
 70
   192
  0
VERTEX
  5
674
  8
0
 10
8.45364761352539
 20
173.5923004150391
 30
35.22354125976562
 70
   192
  0
VERTEX
  5
675
  8
0
 10
28.48431968688965
 20
171.7727966308594
 30
31.48235130310059
 70
   192
  0
VERTEX
  5
676
  8
0
 10
20.55367469787598
 20
158.6372375488281
 30
31.48235130310059
 70
   192
  0
VERTEX
  5
677
  8
0
 10
25.38335609436035
 20
164.68212890625
 30
31.48235130310059
 70
   192
  0
VERTEX
  5
678
  8
0
 10
10.32950496673584
 20
177.6284332275391
 30
35.22354125976562
 70
   192
  0
VERTEX
  5
679
  8
0
 10
10.10780143737793
 20
162.4927673339844
 30
34.11863327026367
 70
   192
  0
VERTEX
  5
67A
  8
0
 10
-14.79340267181396
 20
179.4336090087891
 30
35.323486328125
 70
   192
  0
VERTEX
  5
67B
  8
0
 10
-28.17262840270996
 20
172.0508422851562
 30
32.61522674560547
 70
   192
  0
VERTEX
  5
67C
  8
0
 10
-25.66307258605957
 20
179.4336090087891
 30
33.37576675415039
 70
   192
  0
VERTEX
  5
67D
  8
0
 10
-19.50436592102051
 20
174.5029602050781
 30
34.51602554321289
 70
   192
  0
VERTEX
  5
67E
  8
0
 10
-18.44009590148926
 20
179.4336090087891
 30
34.81352233886719
 70
   192
  0
VERTEX
  5
67F
  8
0
 10
-22.0653190612793
 20
179.4336090087891
 30
34.16754150390625
 70
   192
  0
VERTEX
  5
680
  8
0
 10
-20.21560287475586
 20
180.0
 30
34.11863327026367
 70
   192
  0
VERTEX
  5
681
  8
0
 10
-10.21350383758545
 20
207.8191680908203
 30
31.48235130310059
 70
   192
  0
VERTEX
  5
682
  8
0
 10
-5.187031269073486
 20
209.1911010742188
 30
31.48235130310059
 70
   192
  0
VERTEX
  5
683
  8
0
 10
-5.401441097259521
 20
199.5369720458984
 30
34.51602554321289
 70
   192
  0
VERTEX
  5
684
  8
0
 10
4.229863166809082
 20
199.8296203613281
 30
34.51602554321289
 70
   192
  0
VERTEX
  5
685
  8
0
 10
10.51471519470215
 20
207.7514190673828
 30
31.48235130310059
 70
   192
  0
VERTEX
  5
686
  8
0
 10
-19.28128051757812
 20
186.2286682128906
 30
34.51602554321289
 70
   192
  0
VERTEX
  5
687
  8
0
 10
-9.759631156921387
 20
184.1045532226562
 30
35.22354125976562
 70
   192
  0
VERTEX
  5
688
  8
0
 10
-19.18348503112793
 20
202.5927734375
 30
31.48235130310059
 70
   192
  0
VERTEX
  5
689
  8
0
 10
-14.24305438995361
 20
194.4100799560547
 30
34.51602554321289
 70
   192
  0
VERTEX
  5
68A
  8
0
 10
-22.8477783203125
 20
198.8943176269531
 30
31.48235130310059
 70
   192
  0
VERTEX
  5
68B
  8
0
 10
1.302719235420227
 20
190.5273132324219
 30
35.22354125976562
 70
   192
  0
VERTEX
  5
68C
  8
0
 10
-14.92672157287598
 20
205.5977630615234
 30
31.48235130310059
 70
   192
  0
VERTEX
  5
68D
  8
0
 10
5.340583801269531
 20
209.1670684814453
 30
31.48235130310059
 70
   192
  0
VERTEX
  5
68E
  8
0
 10
0.0000876634512679
 20
209.2743072509766
 30
32.61522674560547
 70
   192
  0
VERTEX
  5
68F
  8
0
 10
-25.80306243896484
 20
194.6005249023438
 30
31.48235130310059
 70
   192
  0
VERTEX
  5
690
  8
0
 10
-27.96010398864746
 20
189.8619842529297
 30
31.48235130310059
 70
   192
  0
VERTEX
  5
691
  8
0
 10
-29.25552558898926
 20
184.8156127929688
 30
31.48235130310059
 70
   192
  0
VERTEX
  5
692
  8
0
 10
-7.204156398773193
 20
187.7713470458984
 30
35.22354125976562
 70
   192
  0
VERTEX
  5
693
  8
0
 10
-3.153629541397095
 20
190.1181182861328
 30
35.22354125976562
 70
   192
  0
VERTEX
  5
694
  8
0
 62
     9
 10
0.0
 20
0.0
 30
0.0
 70
   128
 71
     3
 72
     2
 73
     1
  0
VERTEX
  5
695
  8
0
 62
     9
 10
0.0
 20
0.0
 30
0.0
 70
   128
 71
     6
 72
     5
 73
     4
  0
VERTEX
  5
696
  8
0
 62
     9
 10
0.0
 20
0.0
 30
0.0
 70
   128
 71
     8
 72
     7
 73
     4
  0
VERTEX
  5
697
  8
0
 62
     9
 10
0.0
 20
0.0
 30
0.0
 70
   128
 71
     4
 72
     5
 73
     8
  0
VERTEX
  5
698
  8
0
 62
     9
 10
0.0
 20
0.0
 30
0.0
 70
   128
 71
     9
 72
     7
 73
     8
  0
VERTEX
  5
699
  8
0
 62
     9
 10
0.0
 20
0.0
 30
0.0
 70
   128
 71
    12
 72
    11
 73
    10
  0
VERTEX
  5
69A
  8
0
 62
     9
 10
0.0
 20
0.0
 30
0.0
 70
   128
 71
    13
 72
    10
 73
    11
  0
VERTEX
  5
69B
  8
0
 62
     9
 10
0.0
 20
0.0
 30
0.0
 70
   128
 71
     3
 72
    13
 73
    11
  0
VERTEX
  5
69C
  8
0
 62
     9
 10
0.0
 20
0.0
 30
0.0
 70
   128
 71
     9
 72
     1
 73
     2
  0
VERTEX
  5
69D
  8
0
 62
     9
 10
0.0
 20
0.0
 30
0.0
 70
   128
 71
     1
 72
    13
 73
     3
  0
VERTEX
  5
69E
  8
0
 62
     9
 10
0.0
 20
0.0
 30
0.0
 70
   128
 71
     2
 72
     7
 73
     9
  0
VERTEX
  5
69F
  8
0
 62
     9
 10
0.0
 20
0.0
 30
0.0
 70
   128
 71
    16
 72
    15
 73
    14
  0
VERTEX
  5
6A0
  8
0
 62
     9
 10
0.0
 20
0.0
 30
0.0
 70
   128
 71
    18
 72
    17
 73
    15
  0
VERTEX
  5
6A1
  8
0
 62
     9
 10
0.0
 20
0.0
 30
0.0
 70
   128
 71
    21
 72
    20
 73
    19
  0
VERTEX
  5
6A2
  8
0
 62
     9
 10
0.0
 20
0.0
 30
0.0
 70
   128
 71
    22
 72
    21
 73
    16
  0
VERTEX
  5
6A3
  8
0
 62
     9
 10
0.0
 20
0.0
 30
0.0
 70
   128
 71
    25
 72
    24
 73
    23
  0
VERTEX
  5
6A4
  8
0
 62
     9
 10
0.0
 20
0.0
 30
0.0
 70
   128
 71
    23
 72
    24
 73
    19
  0
VERTEX
  5
6A5
  8
0
 62
     9
 10
0.0
 20
0.0
 30
0.0
 70
   128
 71
    22
 72
    20
 73
    21
  0
VERTEX
  5
6A6
  8
0
 62
     9
 10
0.0
 20
0.0
 30
0.0
 70
   128
 71
    20
 72
    23
 73
    19
  0
VERTEX
  5
6A7
  8
0
 62
     9
 10
0.0
 20
0.0
 30
0.0
 70
   128
 71
    16
 72
    14
 73
    26
  0
VERTEX
  5
6A8
  8
0
 62
     9
 10
0.0
 20
0.0
 30
0.0
 70
   128
 71
    26
 72
    22
 73
    16
  0
VERTEX
  5
6A9
  8
0
 62
     9
 10
0.0
 20
0.0
 30
0.0
 70
   128
 71
    27
 72
    17
 73
    18
  0
VERTEX
  5
6AA
  8
0
 62
     9
 10
0.0
 20
0.0
 30
0.0
 70
   128
 71
    15
 72
    17
 73
    14
  0
VERTEX
  5
6AB
  8
0
 62
     9
 10
0.0
 20
0.0
 30
0.0
 70
   128
 71
    27
 72
    18
 73
    28
  0
VERTEX
  5
6AC
  8
0
 62
     9
 10
0.0
 20
0.0
 30
0.0
 70
   128
 71
    21
 72
    19
 73
    29
  0
VERTEX
  5
6AD
  8
0
 62
     9
 10
0.0
 20
0.0
 30
0.0
 70
   128
 71
    30
 72
    24
 73
    25
  0
VERTEX
  5
6AE
  8
0
 62
     9
 10
0.0
 20
0.0
 30
0.0
 70
   128
 71
    30
 72
    29
 73
    19
  0
VERTEX
  5
6AF
  8
0
 62
     9
 10
0.0
 20
0.0
 30
0.0
 70
   128
 71
    19
 72
    24
 73
    30
  0
VERTEX
  5
6B0
  8
0
 62
     9
 10
0.0
 20
0.0
 30
0.0
 70
   128
 71
    33
 72
    32
 73
    31
  0
VERTEX
  5
6B1
  8
0
 62
     9
 10
0.0
 20
0.0
 30
0.0
 70
   128
 71
    33
 72
    31
 73
    34
  0
VERTEX
  5
6B2
  8
0
 62
     9
 10
0.0
 20
0.0
 30
0.0
 70
   128
 71
    37
 72
    36
 73
    35
  0
VERTEX
  5
6B3
  8
0
 62
     9
 10
0.0
 20
0.0
 30
0.0
 70
   128
 71
    33
 72
    38
 73
    32
  0
VERTEX
  5
6B4
  8
0
 62
     9
 10
0.0
 20
0.0
 30
0.0
 70
   128
 71
    31
 72
    32
 73
    29
  0
VERTEX
  5
6B5
  8
0
 62
     9
 10
0.0
 20
0.0
 30
0.0
 70
   128
 71
    33
 72
    34
 73
    35
  0
VERTEX
  5
6B6
  8
0
 62
     9
 10
0.0
 20
0.0
 30
0.0
 70
   128
 71
    36
 72
    33
 73
    35
  0
VERTEX
  5
6B7
  8
0
 62
     9
 10
0.0
 20
0.0
 30
0.0
 70
   128
 71
    36
 72
    38
 73
    33
  0
VERTEX
  5
6B8
  8
0
 62
     9
 10
0.0
 20
0.0
 30
0.0
 70
   128
 71
    40
 72
    30
 73
    39
  0
VERTEX
  5
6B9
  8
0
 62
     9
 10
0.0
 20
0.0
 30
0.0
 70
   128
 71
    34
 72
    31
 73
    41
  0
VERTEX
  5
6BA
  8
0
 62
     9
 10
0.0
 20
0.0
 30
0.0
 70
   128
 71
    39
 72
    42
 73
    40
  0
VERTEX
  5
6BB
  8
0
 62
     9
 10
0.0
 20
0.0
 30
0.0
 70
   128
 71
    29
 72
    30
 73
    40
  0
VERTEX
  5
6BC
  8
0
 62
     9
 10
0.0
 20
0.0
 30
0.0
 70
   128
 71
    40
 72
    42
 73
    41
  0
VERTEX
  5
6BD
  8
0
 62
     9
 10
0.0
 20
0.0
 30
0.0
 70
   128
 71
    25
 72
    39
 73
    30
  0
VERTEX
  5
6BE
  8
0
 62
     9
 10
0.0
 20
0.0
 30
0.0
 70
   128
 71
    31
 72
    40
 73
    41
  0
VERTEX
  5
6BF
  8
0
 62
     9
 10
0.0
 20
0.0
 30
0.0
 70
   128
 71
    31
 72
    29
 73
    40
  0
VERTEX
  5
6C0
  8
0
 62
     9
 10
0.0
 20
0.0
 30
0.0
 70
   128
 71
    45
 72
    44
 73
    43
  0
VERTEX
  5
6C1
  8
0
 62
     9
 10
0.0
 20
0.0
 30
0.0
 70
   128
 71
    42
 72
    39
 73
    46
  0
VERTEX
  5
6C2
  8
0
 62
     9
 10
0.0
 20
0.0
 30
0.0
 70
   128
 71
    43
 72
    47
 73
    45
  0
VERTEX
  5
6C3
  8
0
 62
     9
 10
0.0
 20
0.0
 30
0.0
 70
   128
 71
    39
 72
    25
 73
    48
  0
VERTEX
  5
6C4
  8
0
 62
     9
 10
0.0
 20
0.0
 30
0.0
 70
   128
 71
    50
 72
    44
 73
    49
  0
VERTEX
  5
6C5
  8
0
 62
     9
 10
0.0
 20
0.0
 30
0.0
 70
   128
 71
    49
 72
    44
 73
    45
  0
VERTEX
  5
6C6
  8
0
 62
     9
 10
0.0
 20
0.0
 30
0.0
 70
   128
 71
    45
 72
    48
 73
    49
  0
VERTEX
  5
6C7
  8
0
 62
     9
 10
0.0
 20
0.0
 30
0.0
 70
   128
 71
    46
 72
    39
 73
    45
  0
VERTEX
  5
6C8
  8
0
 62
     9
 10
0.0
 20
0.0
 30
0.0
 70
   128
 71
    46
 72
    45
 73
    51
  0
VERTEX
  5
6C9
  8
0
 62
     9
 10
0.0
 20
0.0
 30
0.0
 70
   128
 71
    51
 72
    52
 73
    46
  0
VERTEX
  5
6CA
  8
0
 62
     9
 10
0.0
 20
0.0
 30
0.0
 70
   128
 71
    45
 72
    47
 73
    51
  0
VERTEX
  5
6CB
  8
0
 62
     9
 10
0.0
 20
0.0
 30
0.0
 70
   128
 71
    45
 72
    39
 73
    48
  0
VERTEX
  5
6CC
  8
0
 62
     9
 10
0.0
 20
0.0
 30
0.0
 70
   128
 71
    41
 72
    53
 73
    34
  0
VERTEX
  5
6CD
  8
0
 62
     9
 10
0.0
 20
0.0
 30
0.0
 70
   128
 71
    42
 72
    53
 73
    41
  0
VERTEX
  5
6CE
  8
0
 62
     9
 10
0.0
 20
0.0
 30
0.0
 70
   128
 71
    54
 72
    53
 73
    42
  0
VERTEX
  5
6CF
  8
0
 62
     9
 10
0.0
 20
0.0
 30
0.0
 70
   128
 71
    54
 72
    46
 73
    52
  0
VERTEX
  5
6D0
  8
0
 62
     9
 10
0.0
 20
0.0
 30
0.0
 70
   128
 71
    46
 72
    54
 73
    42
  0
VERTEX
  5
6D1
  8
0
 62
     9
 10
0.0
 20
0.0
 30
0.0
 70
   128
 71
    34
 72
    55
 73
    35
  0
VERTEX
  5
6D2
  8
0
 62
     9
 10
0.0
 20
0.0
 30
0.0
 70
   128
 71
    58
 72
    57
 73
    56
  0
VERTEX
  5
6D3
  8
0
 62
     9
 10
0.0
 20
0.0
 30
0.0
 70
   128
 71
    37
 72
    57
 73
    58
  0
VERTEX
  5
6D4
  8
0
 62
     9
 10
0.0
 20
0.0
 30
0.0
 70
   128
 71
    55
 72
    57
 73
    37
  0
VERTEX
  5
6D5
  8
0
 62
     9
 10
0.0
 20
0.0
 30
0.0
 70
   128
 71
    37
 72
    35
 73
    55
  0
VERTEX
  5
6D6
  8
0
 62
     9
 10
0.0
 20
0.0
 30
0.0
 70
   128
 71
    61
 72
    60
 73
    59
  0
VERTEX
  5
6D7
  8
0
 62
     9
 10
0.0
 20
0.0
 30
0.0
 70
   128
 71
    63
 72
    60
 73
    62
  0
VERTEX
  5
6D8
  8
0
 62
     9
 10
0.0
 20
0.0
 30
0.0
 70
   128
 71
    64
 72
    59
 73
    60
  0
VERTEX
  5
6D9
  8
0
 62
     9
 10
0.0
 20
0.0
 30
0.0
 70
   128
 71
    59
 72
    60
 73
    61
  0
VERTEX
  5
6DA
  8
0
 62
     9
 10
0.0
 20
0.0
 30
0.0
 70
   128
 71
    64
 72
    60
 73
    62
  0
VERTEX
  5
6DB
  8
0
 62
     9
 10
0.0
 20
0.0
 30
0.0
 70
   128
 71
    62
 72
    60
 73
    63
  0
VERTEX
  5
6DC
  8
0
 62
     9
 10
0.0
 20
0.0
 30
0.0
 70
   128
 71
    60
 72
    63
 73
    65
  0
VERTEX
  5
6DD
  8
0
 62
     9
 10
0.0
 20
0.0
 30
0.0
 70
   128
 71
    63
 72
    60
 73
    65
  0
VERTEX
  5
6DE
  8
0
 62
     9
 10
0.0
 20
0.0
 30
0.0
 70
   128
 71
    60
 72
    64
 73
    62
  0
VERTEX
  5
6DF
  8
0
 62
     9
 10
0.0
 20
0.0
 30
0.0
 70
   128
 71
    60
 72
    59
 73
    64
  0
VERTEX
  5
6E0
  8
0
 62
     9
 10
0.0
 20
0.0
 30
0.0
 70
   128
 71
    68
 72
    67
 73
    66
  0
VERTEX
  5
6E1
  8
0
 62
     9
 10
0.0
 20
0.0
 30
0.0
 70
   128
 71
    67
 72
    70
 73
    69
  0
VERTEX
  5
6E2
  8
0
 62
     9
 10
0.0
 20
0.0
 30
0.0
 70
   128
 71
    67
 72
    72
 73
    71
  0
VERTEX
  5
6E3
  8
0
 62
     9
 10
0.0
 20
0.0
 30
0.0
 70
   128
 71
    63
 72
    65
 73
    70
  0
VERTEX
  5
6E4
  8
0
 62
     9
 10
0.0
 20
0.0
 30
0.0
 70
   128
 71
    71
 72
    73
 73
    59
  0
VERTEX
  5
6E5
  8
0
 62
     9
 10
0.0
 20
0.0
 30
0.0
 70
   128
 71
    64
 72
    62
 73
    71
  0
VERTEX
  5
6E6
  8
0
 62
     9
 10
0.0
 20
0.0
 30
0.0
 70
   128
 71
    63
 72
    70
 73
    71
  0
VERTEX
  5
6E7
  8
0
 62
     9
 10
0.0
 20
0.0
 30
0.0
 70
   128
 71
    61
 72
    59
 73
    73
  0
VERTEX
  5
6E8
  8
0
 62
     9
 10
0.0
 20
0.0
 30
0.0
 70
   128
 71
    71
 72
    59
 73
    64
  0
VERTEX
  5
6E9
  8
0
 62
     9
 10
0.0
 20
0.0
 30
0.0
 70
   128
 71
    71
 72
    70
 73
    67
  0
VERTEX
  5
6EA
  8
0
 62
     9
 10
0.0
 20
0.0
 30
0.0
 70
   128
 71
    67
 72
    69
 73
    74
  0
VERTEX
  5
6EB
  8
0
 62
     9
 10
0.0
 20
0.0
 30
0.0
 70
   128
 71
    67
 72
    74
 73
    66
  0
VERTEX
  5
6EC
  8
0
 62
     9
 10
0.0
 20
0.0
 30
0.0
 70
   128
 71
    76
 72
    51
 73
    75
  0
VERTEX
  5
6ED
  8
0
 62
     9
 10
0.0
 20
0.0
 30
0.0
 70
   128
 71
    77
 72
    66
 73
    74
  0
VERTEX
  5
6EE
  8
0
 62
     9
 10
0.0
 20
0.0
 30
0.0
 70
   128
 71
    75
 72
    51
 73
    47
  0
VERTEX
  5
6EF
  8
0
 62
     9
 10
0.0
 20
0.0
 30
0.0
 70
   128
 71
    75
 72
    43
 73
    44
  0
VERTEX
  5
6F0
  8
0
 62
     9
 10
0.0
 20
0.0
 30
0.0
 70
   128
 71
    51
 72
    76
 73
    52
  0
VERTEX
  5
6F1
  8
0
 62
     9
 10
0.0
 20
0.0
 30
0.0
 70
   128
 71
    79
 72
    75
 73
    78
  0
VERTEX
  5
6F2
  8
0
 62
     9
 10
0.0
 20
0.0
 30
0.0
 70
   128
 71
    74
 72
    75
 73
    79
  0
VERTEX
  5
6F3
  8
0
 62
     9
 10
0.0
 20
0.0
 30
0.0
 70
   128
 71
    78
 72
    44
 73
    50
  0
VERTEX
  5
6F4
  8
0
 62
     9
 10
0.0
 20
0.0
 30
0.0
 70
   128
 71
    44
 72
    78
 73
    75
  0
VERTEX
  5
6F5
  8
0
 62
     9
 10
0.0
 20
0.0
 30
0.0
 70
   128
 71
    72
 72
    73
 73
    71
  0
VERTEX
  5
6F6
  8
0
 62
     9
 10
0.0
 20
0.0
 30
0.0
 70
   128
 71
    71
 72
    62
 73
    63
  0
VERTEX
  5
6F7
  8
0
 62
     9
 10
0.0
 20
0.0
 30
0.0
 70
   128
 71
    80
 72
    74
 73
    69
  0
VERTEX
  5
6F8
  8
0
 62
     9
 10
0.0
 20
0.0
 30
0.0
 70
   128
 71
    67
 72
    68
 73
    72
  0
VERTEX
  5
6F9
  8
0
 62
     9
 10
0.0
 20
0.0
 30
0.0
 70
   128
 71
    74
 72
    80
 73
    76
  0
VERTEX
  5
6FA
  8
0
 62
     9
 10
0.0
 20
0.0
 30
0.0
 70
   128
 71
    77
 72
    74
 73
    79
  0
VERTEX
  5
6FB
  8
0
 62
     9
 10
0.0
 20
0.0
 30
0.0
 70
   128
 71
    75
 72
    74
 73
    76
  0
VERTEX
  5
6FC
  8
0
 62
     9
 10
0.0
 20
0.0
 30
0.0
 70
   128
 71
    43
 72
    75
 73
    47
  0
VERTEX
  5
6FD
  8
0
 62
     9
 10
0.0
 20
0.0
 30
0.0
 70
   128
 71
    50
 72
    81
 73
    44
  0
VERTEX
  5
6FE
  8
0
 62
     9
 10
0.0
 20
0.0
 30
0.0
 70
   128
 71
    43
 72
    44
 73
    81
  0
VERTEX
  5
6FF
  8
0
 62
     9
 10
0.0
 20
0.0
 30
0.0
 70
   128
 71
    44
 72
    81
 73
    50
  0
VERTEX
  5
700
  8
0
 62
     9
 10
0.0
 20
0.0
 30
0.0
 70
   128
 71
    81
 72
    51
 73
    47
  0
VERTEX
  5
701
  8
0
 62
     9
 10
0.0
 20
0.0
 30
0.0
 70
   128
 71
    47
 72
    81
 73
    43
  0
VERTEX
  5
702
  8
0
 62
     9
 10
0.0
 20
0.0
 30
0.0
 70
   128
 71
    52
 72
    51
 73
    81
  0
VERTEX
  5
703
  8
0
 62
     9
 10
0.0
 20
0.0
 30
0.0
 70
   128
 71
    81
 72
    51
 73
    52
  0
VERTEX
  5
704
  8
0
 62
     9
 10
0.0
 20
0.0
 30
0.0
 70
   128
 71
    81
 72
    47
 73
    51
  0
VERTEX
  5
705
  8
0
 62
     9
 10
0.0
 20
0.0
 30
0.0
 70
   128
 71
    44
 72
    43
 73
    81
  0
VERTEX
  5
706
  8
0
 62
     9
 10
0.0
 20
0.0
 30
0.0
 70
   128
 71
    81
 72
    47
 73
    43
  0
VERTEX
  5
707
  8
0
 62
     9
 10
0.0
 20
0.0
 30
0.0
 70
   128
 71
    58
 72
    56
 73
    82
  0
VERTEX
  5
708
  8
0
 62
     9
 10
0.0
 20
0.0
 30
0.0
 70
   128
 71
    85
 72
    84
 73
    83
  0
VERTEX
  5
709
  8
0
 62
     9
 10
0.0
 20
0.0
 30
0.0
 70
   128
 71
    86
 72
    85
 73
    82
  0
VERTEX
  5
70A
  8
0
 62
     9
 10
0.0
 20
0.0
 30
0.0
 70
   128
 71
    58
 72
    85
 73
    37
  0
VERTEX
  5
70B
  8
0
 62
     9
 10
0.0
 20
0.0
 30
0.0
 70
   128
 71
    82
 72
    85
 73
    58
  0
VERTEX
  5
70C
  8
0
 62
     9
 10
0.0
 20
0.0
 30
0.0
 70
   128
 71
    83
 72
    36
 73
    85
  0
VERTEX
  5
70D
  8
0
 62
     9
 10
0.0
 20
0.0
 30
0.0
 70
   128
 71
    85
 72
    87
 73
    84
  0
VERTEX
  5
70E
  8
0
 62
     9
 10
0.0
 20
0.0
 30
0.0
 70
   128
 71
    83
 72
    84
 73
    28
  0
VERTEX
  5
70F
  8
0
 62
     9
 10
0.0
 20
0.0
 30
0.0
 70
   128
 71
    38
 72
    36
 73
    83
  0
VERTEX
  5
710
  8
0
 62
     9
 10
0.0
 20
0.0
 30
0.0
 70
   128
 71
    36
 72
    37
 73
    85
  0
VERTEX
  5
711
  8
0
 62
     9
 10
0.0
 20
0.0
 30
0.0
 70
   128
 71
    87
 72
    85
 73
    86
  0
VERTEX
  5
712
  8
0
 62
     9
 10
0.0
 20
0.0
 30
0.0
 70
   128
 71
    29
 72
    32
 73
    16
  0
VERTEX
  5
713
  8
0
 62
     9
 10
0.0
 20
0.0
 30
0.0
 70
   128
 71
    18
 72
    15
 73
    38
  0
VERTEX
  5
714
  8
0
 62
     9
 10
0.0
 20
0.0
 30
0.0
 70
   128
 71
    18
 72
    83
 73
    28
  0
VERTEX
  5
715
  8
0
 62
     9
 10
0.0
 20
0.0
 30
0.0
 70
   128
 71
    16
 72
    32
 73
    15
  0
VERTEX
  5
716
  8
0
 62
     9
 10
0.0
 20
0.0
 30
0.0
 70
   128
 71
    32
 72
    38
 73
    15
  0
VERTEX
  5
717
  8
0
 62
     9
 10
0.0
 20
0.0
 30
0.0
 70
   128
 71
    18
 72
    38
 73
    83
  0
VERTEX
  5
718
  8
0
 62
     9
 10
0.0
 20
0.0
 30
0.0
 70
   128
 71
    16
 72
    21
 73
    29
  0
VERTEX
  5
719
  8
0
 62
     9
 10
0.0
 20
0.0
 30
0.0
 70
   128
 71
    88
 72
    86
 73
    82
  0
VERTEX
  5
71A
  8
0
 62
     9
 10
0.0
 20
0.0
 30
0.0
 70
   128
 71
    88
 72
    84
 73
    87
  0
VERTEX
  5
71B
  8
0
 62
     9
 10
0.0
 20
0.0
 30
0.0
 70
   128
 71
    88
 72
    82
 73
    56
  0
VERTEX
  5
71C
  8
0
 62
     9
 10
0.0
 20
0.0
 30
0.0
 70
   128
 71
    88
 72
    56
 73
    82
  0
VERTEX
  5
71D
  8
0
 62
     9
 10
0.0
 20
0.0
 30
0.0
 70
   128
 71
    88
 72
    28
 73
    84
  0
VERTEX
  5
71E
  8
0
 62
     9
 10
0.0
 20
0.0
 30
0.0
 70
   128
 71
    87
 72
    86
 73
    88
  0
VERTEX
  5
71F
  8
0
 62
     9
 10
0.0
 20
0.0
 30
0.0
 70
   128
 71
    28
 72
    88
 73
    84
  0
VERTEX
  5
720
  8
0
 62
     9
 10
0.0
 20
0.0
 30
0.0
 70
   128
 71
    88
 72
    87
 73
    84
  0
VERTEX
  5
721
  8
0
 62
     9
 10
0.0
 20
0.0
 30
0.0
 70
   128
 71
    88
 72
    86
 73
    87
  0
VERTEX
  5
722
  8
0
 62
     9
 10
0.0
 20
0.0
 30
0.0
 70
   128
 71
    88
 72
    82
 73
    86
  0
VERTEX
  5
723
  8
0
 62
     9
 10
0.0
 20
0.0
 30
0.0
 70
   128
 71
    91
 72
    90
 73
    89
  0
VERTEX
  5
724
  8
0
 62
     9
 10
0.0
 20
0.0
 30
0.0
 70
   128
 71
    93
 72
    92
 73
    59
  0
VERTEX
  5
725
  8
0
 62
     9
 10
0.0
 20
0.0
 30
0.0
 70
   128
 71
    95
 72
    94
 73
    82
  0
VERTEX
  5
726
  8
0
 62
     9
 10
0.0
 20
0.0
 30
0.0
 70
   128
 71
    98
 72
    97
 73
    96
  0
VERTEX
  5
727
  8
0
 62
     9
 10
0.0
 20
0.0
 30
0.0
 70
   128
 71
    95
 72
    82
 73
    56
  0
VERTEX
  5
728
  8
0
 62
     9
 10
0.0
 20
0.0
 30
0.0
 70
   128
 71
    99
 72
    63
 73
    92
  0
VERTEX
  5
729
  8
0
 62
     9
 10
0.0
 20
0.0
 30
0.0
 70
   128
 71
    89
 72
   100
 73
    91
  0
VERTEX
  5
72A
  8
0
 62
     9
 10
0.0
 20
0.0
 30
0.0
 70
   128
 71
    63
 72
    99
 73
    65
  0
VERTEX
  5
72B
  8
0
 62
     9
 10
0.0
 20
0.0
 30
0.0
 70
   128
 71
    62
 72
    92
 73
    63
  0
VERTEX
  5
72C
  8
0
 62
     9
 10
0.0
 20
0.0
 30
0.0
 70
   128
 71
    92
 72
    64
 73
    59
  0
VERTEX
  5
72D
  8
0
 62
     9
 10
0.0
 20
0.0
 30
0.0
 70
   128
 71
    61
 72
    93
 73
    59
  0
VERTEX
  5
72E
  8
0
 62
     9
 10
0.0
 20
0.0
 30
0.0
 70
   128
 71
   101
 72
    92
 73
    93
  0
VERTEX
  5
72F
  8
0
 62
     9
 10
0.0
 20
0.0
 30
0.0
 70
   128
 71
   101
 72
   102
 73
    92
  0
VERTEX
  5
730
  8
0
 62
     9
 10
0.0
 20
0.0
 30
0.0
 70
   128
 71
    90
 72
    91
 73
   102
  0
VERTEX
  5
731
  8
0
 62
     9
 10
0.0
 20
0.0
 30
0.0
 70
   128
 71
   102
 72
    91
 73
    92
  0
VERTEX
  5
732
  8
0
 62
     9
 10
0.0
 20
0.0
 30
0.0
 70
   128
 71
   100
 72
    96
 73
    97
  0
VERTEX
  5
733
  8
0
 62
     9
 10
0.0
 20
0.0
 30
0.0
 70
   128
 71
   100
 72
    97
 73
    91
  0
VERTEX
  5
734
  8
0
 62
     9
 10
0.0
 20
0.0
 30
0.0
 70
   128
 71
    97
 72
    98
 73
   103
  0
VERTEX
  5
735
  8
0
 62
     9
 10
0.0
 20
0.0
 30
0.0
 70
   128
 71
    94
 72
   103
 73
   104
  0
VERTEX
  5
736
  8
0
 62
     9
 10
0.0
 20
0.0
 30
0.0
 70
   128
 71
    97
 72
   103
 73
    94
  0
VERTEX
  5
737
  8
0
 62
     9
 10
0.0
 20
0.0
 30
0.0
 70
   128
 71
    86
 72
    94
 73
    87
  0
VERTEX
  5
738
  8
0
 62
     9
 10
0.0
 20
0.0
 30
0.0
 70
   128
 71
   105
 72
    94
 73
   104
  0
VERTEX
  5
739
  8
0
 62
     9
 10
0.0
 20
0.0
 30
0.0
 70
   128
 71
    94
 72
    84
 73
    87
  0
VERTEX
  5
73A
  8
0
 62
     9
 10
0.0
 20
0.0
 30
0.0
 70
   128
 71
    94
 72
   105
 73
    84
  0
VERTEX
  5
73B
  8
0
 62
     9
 10
0.0
 20
0.0
 30
0.0
 70
   128
 71
    84
 72
   105
 73
    28
  0
VERTEX
  5
73C
  8
0
 62
     9
 10
0.0
 20
0.0
 30
0.0
 70
   128
 71
    94
 72
    86
 73
    82
  0
VERTEX
  5
73D
  8
0
 62
     9
 10
0.0
 20
0.0
 30
0.0
 70
   128
 71
   106
 72
    97
 73
    95
  0
VERTEX
  5
73E
  8
0
 62
     9
 10
0.0
 20
0.0
 30
0.0
 70
   128
 71
    97
 72
    94
 73
    95
  0
VERTEX
  5
73F
  8
0
 62
     9
 10
0.0
 20
0.0
 30
0.0
 70
   128
 71
    91
 72
   106
 73
   107
  0
VERTEX
  5
740
  8
0
 62
     9
 10
0.0
 20
0.0
 30
0.0
 70
   128
 71
    91
 72
    97
 73
   106
  0
VERTEX
  5
741
  8
0
 62
     9
 10
0.0
 20
0.0
 30
0.0
 70
   128
 71
   107
 72
    99
 73
    91
  0
VERTEX
  5
742
  8
0
 62
     9
 10
0.0
 20
0.0
 30
0.0
 70
   128
 71
    92
 72
    91
 73
    99
  0
VERTEX
  5
743
  8
0
 62
     9
 10
0.0
 20
0.0
 30
0.0
 70
   128
 71
    64
 72
    92
 73
    62
  0
SEQEND
  5
744
  8
0
 62
     9
  0
ENDBLK
  5
747
  8
0
  0
BLOCK
  8
0
  2
43
 70
     0
 10
0.0
 20
0.0
 30
0.0
  3
43
  1

  0
POLYLINE
  5
749
  8
0
 62
     9
 66
     1
 10
0.0
 20
0.0
 30
0.0
 70
    64
 71
     8
 72
    12
  0
VERTEX
  5
74A
  8
0
 10
-42.5
 20
222.5
 30
10.0
 70
   192
  0
VERTEX
  5
74B
  8
0
 10
42.5
 20
137.5
 30
10.0
 70
   192
  0
VERTEX
  5
74C
  8
0
 10
42.5
 20
222.5
 30
10.0
 70
   192
  0
VERTEX
  5
74D
  8
0
 10
-42.5
 20
137.5
 30
10.0
 70
   192
  0
VERTEX
  5
74E
  8
0
 10
-42.5
 20
222.5
 30
0.0
 70
   192
  0
VERTEX
  5
74F
  8
0
 10
-42.5
 20
137.5
 30
0.0
 70
   192
  0
VERTEX
  5
750
  8
0
 10
42.5
 20
137.5
 30
0.0
 70
   192
  0
VERTEX
  5
751
  8
0
 10
42.5
 20
222.5
 30
0.0
 70
   192
  0
VERTEX
  5
752
  8
0
 62
     9
 10
0.0
 20
0.0
 30
0.0
 70
   128
 71
     3
 72
     2
 73
     1
  0
VERTEX
  5
753
  8
0
 62
     9
 10
0.0
 20
0.0
 30
0.0
 70
   128
 71
     4
 72
     1
 73
     2
  0
VERTEX
  5
754
  8
0
 62
     9
 10
0.0
 20
0.0
 30
0.0
 70
   128
 71
     6
 72
     5
 73
     1
  0
VERTEX
  5
755
  8
0
 62
     9
 10
0.0
 20
0.0
 30
0.0
 70
   128
 71
     4
 72
     6
 73
     1
  0
VERTEX
  5
756
  8
0
 62
     9
 10
0.0
 20
0.0
 30
0.0
 70
   128
 71
     2
 72
     7
 73
     4
  0
VERTEX
  5
757
  8
0
 62
     9
 10
0.0
 20
0.0
 30
0.0
 70
   128
 71
     6
 72
     4
 73
     7
  0
VERTEX
  5
758
  8
0
 62
     9
 10
0.0
 20
0.0
 30
0.0
 70
   128
 71
     7
 72
     2
 73
     8
  0
VERTEX
  5
759
  8
0
 62
     9
 10
0.0
 20
0.0
 30
0.0
 70
   128
 71
     3
 72
     8
 73
     2
  0
VERTEX
  5
75A
  8
0
 62
     9
 10
0.0
 20
0.0
 30
0.0
 70
   128
 71
     8
 72
     3
 73
     5
  0
VERTEX
  5
75B
  8
0
 62
     9
 10
0.0
 20
0.0
 30
0.0
 70
   128
 71
     1
 72
     5
 73
     3
  0
VERTEX
  5
75C
  8
0
 62
     9
 10
0.0
 20
0.0
 30
0.0
 70
   128
 71
     5
 72
     6
 73
     7
  0
VERTEX
  5
75D
  8
0
 62
     9
 10
0.0
 20
0.0
 30
0.0
 70
   128
 71
     8
 72
     5
 73
     7
  0
SEQEND
  5
75E
  8
0
 62
     9
  0
ENDBLK
  5
761
  8
0
  0
BLOCK
  8
0
  2
44
 70
     0
 10
0.0
 20
0.0
 30
0.0
  3
44
  1

  0
POLYLINE
  5
763
  8
0
 62
     9
 66
     1
 10
0.0
 20
0.0
 30
0.0
 70
    64
 71
   117
 72
   193
  0
VERTEX
  5
764
  8
0
 10
99.50267791748047
 20
-9.509127616882324
 30
75.0443344116211
 70
   192
  0
VERTEX
  5
765
  8
0
 10
99.50267791748047
 20
-9.999251365661621
 30
78.13300323486328
 70
   192
  0
VERTEX
  5
766
  8
0
 10
123.5026779174805
 20
-9.999598503112793
 30
78.14563751220703
 70
   192
  0
VERTEX
  5
767
  8
0
 10
123.5026779174805
 20
-9.512099266052246
 30
75.05326080322266
 70
   192
  0
VERTEX
  5
768
  8
0
 10
123.5026779174805
 20
-8.094518661499023
 30
72.26708221435547
 70
   192
  0
VERTEX
  5
769
  8
0
 10
123.5026779174805
 20
-5.883893013000488
 30
70.0525894165039
 70
   192
  0
VERTEX
  5
76A
  8
0
 10
99.50267791748047
 20
-8.088579177856445
 30
72.2585220336914
 70
   192
  0
VERTEX
  5
76B
  8
0
 10
99.50267791748047
 20
-3.088328838348389
 30
68.62653350830078
 70
   192
  0
VERTEX
  5
76C
  8
0
 10
99.50267791748047
 20
-5.878028869628906
 30
70.04786682128906
 70
   192
  0
VERTEX
  5
76D
  8
0
 10
123.5026779174805
 20
-3.094475984573364
 30
68.6287841796875
 70
   192
  0
VERTEX
  5
76E
  8
0
 10
99.50267791748047
 20
0.0000175895911525
 30
68.1390380859375
 70
   192
  0
VERTEX
  5
76F
  8
0
 10
123.5026779174805
 20
0.0000182046242116
 30
68.13780212402344
 70
   192
  0
VERTEX
  5
770
  8
0
 10
123.5026779174805
 20
-9.507339477539062
 30
81.23613739013672
 70
   192
  0
VERTEX
  5
771
  8
0
 10
99.50267791748047
 20
-8.093387603759766
 30
84.00980377197266
 70
   192
  0
VERTEX
  5
772
  8
0
 10
99.50267791748047
 20
-9.511119842529297
 30
81.22605895996094
 70
   192
  0
VERTEX
  5
773
  8
0
 10
123.5026779174805
 20
-8.085317611694336
 30
84.02151489257812
 70
   192
  0
VERTEX
  5
774
  8
0
 10
99.50267791748047
 20
-5.882247447967529
 30
86.22442626953125
 70
   192
  0
VERTEX
  5
775
  8
0
 10
123.5026779174805
 20
-5.873353958129883
 30
86.231201171875
 70
   192
  0
VERTEX
  5
776
  8
0
 10
123.5026779174805
 20
-3.08006763458252
 30
87.65115356445312
 70
   192
  0
VERTEX
  5
777
  8
0
 10
99.50267791748047
 20
-3.093900203704834
 30
87.64691162109375
 70
   192
  0
VERTEX
  5
778
  8
0
 10
123.5026779174805
 20
0.0000187794830708
 30
88.13627624511719
 70
   192
  0
VERTEX
  5
779
  8
0
 10
99.50267791748047
 20
0.0000182046242116
 30
88.13780212402344
 70
   192
  0
VERTEX
  5
77A
  8
0
 10
123.5026779174805
 20
9.508696556091309
 30
75.04253387451172
 70
   192
  0
VERTEX
  5
77B
  8
0
 10
123.5026779174805
 20
3.099952459335327
 30
87.64476013183594
 70
   192
  0
VERTEX
  5
77C
  8
0
 10
123.5026779174805
 20
9.998913764953613
 30
78.128173828125
 70
   192
  0
VERTEX
  5
77D
  8
0
 10
123.5026779174805
 20
9.512746810913086
 30
81.22248077392578
 70
   192
  0
VERTEX
  5
77E
  8
0
 10
123.5026779174805
 20
8.094704627990723
 30
84.0084228515625
 70
   192
  0
VERTEX
  5
77F
  8
0
 10
123.5026779174805
 20
5.883048057556152
 30
86.22395324707031
 70
   192
  0
VERTEX
  5
780
  8
0
 10
123.5026779174805
 20
5.869148254394531
 30
70.04259490966797
 70
   192
  0
VERTEX
  5
781
  8
0
 10
123.5026779174805
 20
8.086262702941895
 30
72.25470733642578
 70
   192
  0
VERTEX
  5
782
  8
0
 10
123.5026779174805
 20
3.086852073669434
 30
68.62613677978516
 70
   192
  0
VERTEX
  5
783
  8
0
 10
99.50267791748047
 20
3.093772888183594
 30
68.62918090820312
 70
   192
  0
VERTEX
  5
784
  8
0
 10
99.50267791748047
 20
9.99947738647461
 30
78.14208221435547
 70
   192
  0
VERTEX
  5
785
  8
0
 10
99.50267791748047
 20
9.511300086975098
 30
75.05101013183594
 70
   192
  0
VERTEX
  5
786
  8
0
 10
99.50267791748047
 20
5.877918720245361
 30
70.04801940917969
 70
   192
  0
VERTEX
  5
787
  8
0
 10
99.50267791748047
 20
8.086944580078125
 30
84.01952362060547
 70
   192
  0
VERTEX
  5
788
  8
0
 10
99.50267791748047
 20
9.509797096252441
 30
81.22998046875
 70
   192
  0
VERTEX
  5
789
  8
0
 10
99.50267791748047
 20
3.085807800292969
 30
87.64933776855469
 70
   192
  0
VERTEX
  5
78A
  8
0
 10
99.50267791748047
 20
5.871903419494629
 30
86.23152160644531
 70
   192
  0
VERTEX
  5
78B
  8
0
 10
99.50267791748047
 20
8.0907564163208
 30
72.26107025146484
 70
   192
  0
VERTEX
  5
78C
  8
0
 10
99.50267791748047
 20
4.048200130462646
 30
74.08961486816406
 70
   192
  0
VERTEX
  5
78D
  8
0
 10
99.50267791748047
 20
-5.724981784820557
 30
78.13780212402344
 70
   192
  0
VERTEX
  5
78E
  8
0
 10
99.50267791748047
 20
0.0000182046242116
 30
72.41279602050781
 70
   192
  0
VERTEX
  5
78F
  8
0
 10
99.50267791748047
 20
-4.048163890838623
 30
74.08961486816406
 70
   192
  0
VERTEX
  5
790
  8
0
 10
99.50267791748047
 20
5.72501802444458
 30
78.13780212402344
 70
   192
  0
VERTEX
  5
791
  8
0
 10
99.50267791748047
 20
4.048200130462646
 30
82.18598175048828
 70
   192
  0
VERTEX
  5
792
  8
0
 10
99.50267791748047
 20
-4.048163890838623
 30
82.18598175048828
 70
   192
  0
VERTEX
  5
793
  8
0
 10
99.50267791748047
 20
0.0000182046242116
 30
83.86280059814453
 70
   192
  0
VERTEX
  5
794
  8
0
 10
98.72822570800781
 20
-1.461120367050171
 30
73.6473617553711
 70
   192
  0
VERTEX
  5
795
  8
0
 10
98.72822570800781
 20
-2.77885890007019
 30
74.28752136230469
 70
   192
  0
VERTEX
  5
796
  8
0
 10
99.69373321533203
 20
-2.107324123382568
 30
72.81475830078125
 70
   192
  0
VERTEX
  5
797
  8
0
 10
99.69373321533203
 20
-4.048168182373047
 30
74.08961486816406
 70
   192
  0
VERTEX
  5
798
  8
0
 10
98.72822570800781
 20
-3.838515043258667
 30
75.34138488769531
 70
   192
  0
VERTEX
  5
799
  8
0
 10
99.69373321533203
 20
0.0000182046242116
 30
72.41279602050781
 70
   192
  0
VERTEX
  5
79A
  8
0
 10
98.72822570800781
 20
0.0000182046242116
 30
73.38780212402344
 70
   192
  0
VERTEX
  5
79B
  8
0
 10
98.72822570800781
 20
-4.510433673858643
 30
76.65906524658203
 70
   192
  0
VERTEX
  5
79C
  8
0
 10
99.69373321533203
 20
-5.323019981384277
 30
76.03045654296875
 70
   192
  0
VERTEX
  5
79D
  8
0
 10
99.69373321533203
 20
-5.724981784820557
 30
78.13780212402344
 70
   192
  0
VERTEX
  5
79E
  8
0
 10
98.72822570800781
 20
-4.749981880187988
 30
78.13780212402344
 70
   192
  0
VERTEX
  5
79F
  8
0
 10
98.72822570800781
 20
-4.517449378967285
 30
79.6076431274414
 70
   192
  0
VERTEX
  5
7A0
  8
0
 10
98.72822570800781
 20
-3.843013048171997
 30
80.93114471435547
 70
   192
  0
VERTEX
  5
7A1
  8
0
 10
99.69373321533203
 20
-5.323019981384277
 30
80.2451400756836
 70
   192
  0
VERTEX
  5
7A2
  8
0
 10
99.69373321533203
 20
-4.048168182373047
 30
82.18598175048828
 70
   192
  0
VERTEX
  5
7A3
  8
0
 10
98.72822570800781
 20
-2.789634704589844
 30
81.98606872558594
 70
   192
  0
VERTEX
  5
7A4
  8
0
 10
98.72822570800781
 20
-1.461861491203308
 30
82.65458679199219
 70
   192
  0
VERTEX
  5
7A5
  8
0
 10
99.69373321533203
 20
-2.107324123382568
 30
83.4608383178711
 70
   192
  0
VERTEX
  5
7A6
  8
0
 10
99.69373321533203
 20
0.0000182046242116
 30
83.86280059814453
 70
   192
  0
VERTEX
  5
7A7
  8
0
 10
98.72822570800781
 20
0.0000182046242116
 30
82.88780212402344
 70
   192
  0
VERTEX
  5
7A8
  8
0
 10
98.72822570800781
 20
1.461156845092773
 30
82.62823486328125
 70
   192
  0
VERTEX
  5
7A9
  8
0
 10
98.72822570800781
 20
2.778895378112793
 30
81.98808288574219
 70
   192
  0
VERTEX
  5
7AA
  8
0
 10
99.69373321533203
 20
2.107360363006592
 30
83.4608383178711
 70
   192
  0
VERTEX
  5
7AB
  8
0
 10
99.69373321533203
 20
4.04820442199707
 30
82.18598175048828
 70
   192
  0
VERTEX
  5
7AC
  8
0
 10
98.72822570800781
 20
3.83855128288269
 30
80.93421173095703
 70
   192
  0
VERTEX
  5
7AD
  8
0
 10
98.72822570800781
 20
4.510469913482666
 30
79.61653137207031
 70
   192
  0
VERTEX
  5
7AE
  8
0
 10
99.69373321533203
 20
5.323056221008301
 30
80.2451400756836
 70
   192
  0
VERTEX
  5
7AF
  8
0
 10
99.69373321533203
 20
5.72501802444458
 30
78.13780212402344
 70
   192
  0
VERTEX
  5
7B0
  8
0
 10
98.72822570800781
 20
4.750018119812012
 30
78.13780212402344
 70
   192
  0
VERTEX
  5
7B1
  8
0
 10
94.9999771118164
 20
-4.676490783691406
 30
77.30836486816406
 70
   192
  0
VERTEX
  5
7B2
  8
0
 10
94.9999771118164
 20
-4.11172342300415
 30
75.75992584228516
 70
   192
  0
VERTEX
  5
7B3
  8
0
 10
94.9999771118164
 20
-3.049874782562256
 30
74.49700927734375
 70
   192
  0
VERTEX
  5
7B4
  8
0
 10
94.9999771118164
 20
-1.623244762420654
 30
73.67385864257812
 70
   192
  0
VERTEX
  5
7B5
  8
0
 10
94.9999771118164
 20
0.0000182046242116
 30
73.38780212402344
 70
   192
  0
VERTEX
  5
7B6
  8
0
 10
94.9999771118164
 20
-4.678301811218262
 30
78.9592056274414
 70
   192
  0
VERTEX
  5
7B7
  8
0
 10
94.9999771118164
 20
-4.115165233612061
 30
80.50959777832031
 70
   192
  0
VERTEX
  5
7B8
  8
0
 10
94.9999771118164
 20
-3.054858684539795
 30
81.77510070800781
 70
   192
  0
VERTEX
  5
7B9
  8
0
 10
94.9999771118164
 20
-1.62573516368866
 30
82.60086822509766
 70
   192
  0
VERTEX
  5
7BA
  8
0
 10
94.9999771118164
 20
0.0000182046242116
 30
82.88780212402344
 70
   192
  0
VERTEX
  5
7BB
  8
0
 10
98.72822570800781
 20
1.461897850036621
 30
73.62101745605469
 70
   192
  0
VERTEX
  5
7BC
  8
0
 10
94.9999771118164
 20
1.625771641731262
 30
73.67472839355469
 70
   192
  0
VERTEX
  5
7BD
  8
0
 10
94.9999771118164
 20
4.678338050842285
 30
77.31639099121094
 70
   192
  0
VERTEX
  5
7BE
  8
0
 10
98.72822570800781
 20
4.517485618591309
 30
76.66795349121094
 70
   192
  0
VERTEX
  5
7BF
  8
0
 10
94.9999771118164
 20
3.054895162582397
 30
74.50049591064453
 70
   192
  0
VERTEX
  5
7C0
  8
0
 10
98.72822570800781
 20
2.789671182632446
 30
74.28953552246094
 70
   192
  0
VERTEX
  5
7C1
  8
0
 10
98.72822570800781
 20
3.843049287796021
 30
75.3444595336914
 70
   192
  0
VERTEX
  5
7C2
  8
0
 10
94.9999771118164
 20
3.049911260604858
 30
81.7785873413086
 70
   192
  0
VERTEX
  5
7C3
  8
0
 10
94.9999771118164
 20
4.111760139465332
 30
80.51567077636719
 70
   192
  0
VERTEX
  5
7C4
  8
0
 10
94.9999771118164
 20
4.676527500152588
 30
78.96723175048828
 70
   192
  0
VERTEX
  5
7C5
  8
0
 10
94.9999771118164
 20
1.623281121253967
 30
82.60173797607422
 70
   192
  0
VERTEX
  5
7C6
  8
0
 10
94.9999771118164
 20
4.115201473236084
 30
75.76599884033203
 70
   192
  0
VERTEX
  5
7C7
  8
0
 10
94.9999771118164
 20
-5.823670387268066
 30
70.88744354248047
 70
   192
  0
VERTEX
  5
7C8
  8
0
 10
94.9999771118164
 20
-6.601696491241455
 30
84.68760681152344
 70
   192
  0
VERTEX
  5
7C9
  8
0
 10
94.9999771118164
 20
-8.267260551452637
 30
73.8782958984375
 70
   192
  0
VERTEX
  5
7CA
  8
0
 10
94.9999771118164
 20
-8.696234703063965
 30
81.43376922607422
 70
   192
  0
VERTEX
  5
7CB
  8
0
 10
94.9999771118164
 20
-9.284933090209961
 30
77.60855865478516
 70
   192
  0
VERTEX
  5
7CC
  8
0
 10
94.9999771118164
 20
-2.372046232223511
 30
69.14591217041016
 70
   192
  0
VERTEX
  5
7CD
  8
0
 10
94.9999771118164
 20
1.491520524024963
 30
68.95836639404297
 70
   192
  0
VERTEX
  5
7CE
  8
0
 10
94.9999771118164
 20
4.186573028564453
 30
86.44224548339844
 70
   192
  0
VERTEX
  5
7CF
  8
0
 10
94.9999771118164
 20
0.4485359191894531
 30
87.42662048339844
 70
   192
  0
VERTEX
  5
7D0
  8
0
 10
94.9999771118164
 20
7.203178882598877
 30
84.0201644897461
 70
   192
  0
VERTEX
  5
7D1
  8
0
 10
94.9999771118164
 20
5.097865104675293
 30
70.35973358154297
 70
   192
  0
VERTEX
  5
7D2
  8
0
 10
94.9999771118164
 20
9.191973686218262
 30
76.72431182861328
 70
   192
  0
VERTEX
  5
7D3
  8
0
 10
94.9999771118164
 20
7.821441173553467
 30
73.10723876953125
 70
   192
  0
VERTEX
  5
7D4
  8
0
 10
94.9999771118164
 20
8.97311019897461
 30
80.58133697509766
 70
   192
  0
VERTEX
  5
7D5
  8
0
 10
94.9999771118164
 20
-3.367241144180298
 30
86.80599212646484
 70
   192
  0
VERTEX
  5
7D6
  8
0
 10
99.69373321533203
 20
2.107360363006592
 30
72.81475830078125
 70
   192
  0
VERTEX
  5
7D7
  8
0
 10
99.69373321533203
 20
4.04820442199707
 30
74.08961486816406
 70
   192
  0
VERTEX
  5
7D8
  8
0
 10
99.69373321533203
 20
5.323056221008301
 30
76.03045654296875
 70
   192
  0
VERTEX
  5
7D9
  8
0
 62
     9
 10
0.0
 20
0.0
 30
0.0
 70
   128
 71
     3
 72
     2
 73
     1
  0
VERTEX
  5
7DA
  8
0
 62
     9
 10
0.0
 20
0.0
 30
0.0
 70
   128
 71
     1
 72
     5
 73
     4
  0
VERTEX
  5
7DB
  8
0
 62
     9
 10
0.0
 20
0.0
 30
0.0
 70
   128
 71
     3
 72
     1
 73
     4
  0
VERTEX
  5
7DC
  8
0
 62
     9
 10
0.0
 20
0.0
 30
0.0
 70
   128
 71
     5
 72
     7
 73
     6
  0
VERTEX
  5
7DD
  8
0
 62
     9
 10
0.0
 20
0.0
 30
0.0
 70
   128
 71
     7
 72
     5
 73
     1
  0
VERTEX
  5
7DE
  8
0
 62
     9
 10
0.0
 20
0.0
 30
0.0
 70
   128
 71
     6
 72
     9
 73
     8
  0
VERTEX
  5
7DF
  8
0
 62
     9
 10
0.0
 20
0.0
 30
0.0
 70
   128
 71
     7
 72
     9
 73
     6
  0
VERTEX
  5
7E0
  8
0
 62
     9
 10
0.0
 20
0.0
 30
0.0
 70
   128
 71
    11
 72
    10
 73
     8
  0
VERTEX
  5
7E1
  8
0
 62
     9
 10
0.0
 20
0.0
 30
0.0
 70
   128
 71
     6
 72
     8
 73
    10
  0
VERTEX
  5
7E2
  8
0
 62
     9
 10
0.0
 20
0.0
 30
0.0
 70
   128
 71
    12
 72
    10
 73
    11
  0
VERTEX
  5
7E3
  8
0
 62
     9
 10
0.0
 20
0.0
 30
0.0
 70
   128
 71
     2
 72
     3
 73
    13
  0
VERTEX
  5
7E4
  8
0
 62
     9
 10
0.0
 20
0.0
 30
0.0
 70
   128
 71
    15
 72
    13
 73
    14
  0
VERTEX
  5
7E5
  8
0
 62
     9
 10
0.0
 20
0.0
 30
0.0
 70
   128
 71
    15
 72
     2
 73
    13
  0
VERTEX
  5
7E6
  8
0
 62
     9
 10
0.0
 20
0.0
 30
0.0
 70
   128
 71
    17
 72
    14
 73
    16
  0
VERTEX
  5
7E7
  8
0
 62
     9
 10
0.0
 20
0.0
 30
0.0
 70
   128
 71
    13
 72
    16
 73
    14
  0
VERTEX
  5
7E8
  8
0
 62
     9
 10
0.0
 20
0.0
 30
0.0
 70
   128
 71
    19
 72
    17
 73
    18
  0
VERTEX
  5
7E9
  8
0
 62
     9
 10
0.0
 20
0.0
 30
0.0
 70
   128
 71
    17
 72
    16
 73
    18
  0
VERTEX
  5
7EA
  8
0
 62
     9
 10
0.0
 20
0.0
 30
0.0
 70
   128
 71
    19
 72
    21
 73
    20
  0
VERTEX
  5
7EB
  8
0
 62
     9
 10
0.0
 20
0.0
 30
0.0
 70
   128
 71
    20
 72
    17
 73
    19
  0
VERTEX
  5
7EC
  8
0
 62
     9
 10
0.0
 20
0.0
 30
0.0
 70
   128
 71
    21
 72
    22
 73
    20
  0
VERTEX
  5
7ED
  8
0
 62
     9
 10
0.0
 20
0.0
 30
0.0
 70
   128
 71
    19
 72
    23
 73
    21
  0
VERTEX
  5
7EE
  8
0
 62
     9
 10
0.0
 20
0.0
 30
0.0
 70
   128
 71
    21
 72
    25
 73
    24
  0
VERTEX
  5
7EF
  8
0
 62
     9
 10
0.0
 20
0.0
 30
0.0
 70
   128
 71
    27
 72
    24
 73
    26
  0
VERTEX
  5
7F0
  8
0
 62
     9
 10
0.0
 20
0.0
 30
0.0
 70
   128
 71
    24
 72
    27
 73
    28
  0
VERTEX
  5
7F1
  8
0
 62
     9
 10
0.0
 20
0.0
 30
0.0
 70
   128
 71
    26
 72
    24
 73
    25
  0
VERTEX
  5
7F2
  8
0
 62
     9
 10
0.0
 20
0.0
 30
0.0
 70
   128
 71
    23
 72
    19
 73
    18
  0
VERTEX
  5
7F3
  8
0
 62
     9
 10
0.0
 20
0.0
 30
0.0
 70
   128
 71
    23
 72
    25
 73
    21
  0
VERTEX
  5
7F4
  8
0
 62
     9
 10
0.0
 20
0.0
 30
0.0
 70
   128
 71
    30
 72
    18
 73
    29
  0
VERTEX
  5
7F5
  8
0
 62
     9
 10
0.0
 20
0.0
 30
0.0
 70
   128
 71
    30
 72
    23
 73
    18
  0
VERTEX
  5
7F6
  8
0
 62
     9
 10
0.0
 20
0.0
 30
0.0
 70
   128
 71
    18
 72
    16
 73
    29
  0
VERTEX
  5
7F7
  8
0
 62
     9
 10
0.0
 20
0.0
 30
0.0
 70
   128
 71
    16
 72
    13
 73
    29
  0
VERTEX
  5
7F8
  8
0
 62
     9
 10
0.0
 20
0.0
 30
0.0
 70
   128
 71
    13
 72
     3
 73
    31
  0
VERTEX
  5
7F9
  8
0
 62
     9
 10
0.0
 20
0.0
 30
0.0
 70
   128
 71
    31
 72
    29
 73
    13
  0
VERTEX
  5
7FA
  8
0
 62
     9
 10
0.0
 20
0.0
 30
0.0
 70
   128
 71
     3
 72
     4
 73
    10
  0
VERTEX
  5
7FB
  8
0
 62
     9
 10
0.0
 20
0.0
 30
0.0
 70
   128
 71
     3
 72
    12
 73
    31
  0
VERTEX
  5
7FC
  8
0
 62
     9
 10
0.0
 20
0.0
 30
0.0
 70
   128
 71
    10
 72
     4
 73
     5
  0
VERTEX
  5
7FD
  8
0
 62
     9
 10
0.0
 20
0.0
 30
0.0
 70
   128
 71
     6
 72
    10
 73
     5
  0
VERTEX
  5
7FE
  8
0
 62
     9
 10
0.0
 20
0.0
 30
0.0
 70
   128
 71
    12
 72
     3
 73
    10
  0
VERTEX
  5
7FF
  8
0
 62
     9
 10
0.0
 20
0.0
 30
0.0
 70
   128
 71
    12
 72
    11
 73
    32
  0
VERTEX
  5
800
  8
0
 62
     9
 10
0.0
 20
0.0
 30
0.0
 70
   128
 71
    34
 72
    33
 73
    23
  0
VERTEX
  5
801
  8
0
 62
     9
 10
0.0
 20
0.0
 30
0.0
 70
   128
 71
    30
 72
    29
 73
    35
  0
VERTEX
  5
802
  8
0
 62
     9
 10
0.0
 20
0.0
 30
0.0
 70
   128
 71
    37
 72
    36
 73
    27
  0
VERTEX
  5
803
  8
0
 62
     9
 10
0.0
 20
0.0
 30
0.0
 70
   128
 71
    26
 72
    25
 73
    37
  0
VERTEX
  5
804
  8
0
 62
     9
 10
0.0
 20
0.0
 30
0.0
 70
   128
 71
    39
 72
    38
 73
    28
  0
VERTEX
  5
805
  8
0
 62
     9
 10
0.0
 20
0.0
 30
0.0
 70
   128
 71
    39
 72
    28
 73
    36
  0
VERTEX
  5
806
  8
0
 62
     9
 10
0.0
 20
0.0
 30
0.0
 70
   128
 71
    24
 72
    38
 73
    22
  0
VERTEX
  5
807
  8
0
 62
     9
 10
0.0
 20
0.0
 30
0.0
 70
   128
 71
    38
 72
    24
 73
    28
  0
VERTEX
  5
808
  8
0
 62
     9
 10
0.0
 20
0.0
 30
0.0
 70
   128
 71
    24
 72
    22
 73
    21
  0
VERTEX
  5
809
  8
0
 62
     9
 10
0.0
 20
0.0
 30
0.0
 70
   128
 71
    37
 72
    27
 73
    26
  0
VERTEX
  5
80A
  8
0
 62
     9
 10
0.0
 20
0.0
 30
0.0
 70
   128
 71
    36
 72
    28
 73
    27
  0
VERTEX
  5
80B
  8
0
 62
     9
 10
0.0
 20
0.0
 30
0.0
 70
   128
 71
    33
 72
    25
 73
    23
  0
VERTEX
  5
80C
  8
0
 62
     9
 10
0.0
 20
0.0
 30
0.0
 70
   128
 71
    37
 72
    25
 73
    33
  0
VERTEX
  5
80D
  8
0
 62
     9
 10
0.0
 20
0.0
 30
0.0
 70
   128
 71
    30
 72
    40
 73
    23
  0
VERTEX
  5
80E
  8
0
 62
     9
 10
0.0
 20
0.0
 30
0.0
 70
   128
 71
    40
 72
    34
 73
    23
  0
VERTEX
  5
80F
  8
0
 62
     9
 10
0.0
 20
0.0
 30
0.0
 70
   128
 71
    31
 72
    35
 73
    29
  0
VERTEX
  5
810
  8
0
 62
     9
 10
0.0
 20
0.0
 30
0.0
 70
   128
 71
    30
 72
    35
 73
    40
  0
VERTEX
  5
811
  8
0
 62
     9
 10
0.0
 20
0.0
 30
0.0
 70
   128
 71
    32
 72
    31
 73
    12
  0
VERTEX
  5
812
  8
0
 62
     9
 10
0.0
 20
0.0
 30
0.0
 70
   128
 71
    31
 72
    32
 73
    35
  0
VERTEX
  5
813
  8
0
 62
     9
 10
0.0
 20
0.0
 30
0.0
 70
   128
 71
    41
 72
    34
 73
    40
  0
VERTEX
  5
814
  8
0
 62
     9
 10
0.0
 20
0.0
 30
0.0
 70
   128
 71
     2
 72
    15
 73
    42
  0
VERTEX
  5
815
  8
0
 62
     9
 10
0.0
 20
0.0
 30
0.0
 70
   128
 71
    35
 72
    32
 73
    41
  0
VERTEX
  5
816
  8
0
 62
     9
 10
0.0
 20
0.0
 30
0.0
 70
   128
 71
    11
 72
    43
 73
    32
  0
VERTEX
  5
817
  8
0
 62
     9
 10
0.0
 20
0.0
 30
0.0
 70
   128
 71
    41
 72
    32
 73
    43
  0
VERTEX
  5
818
  8
0
 62
     9
 10
0.0
 20
0.0
 30
0.0
 70
   128
 71
    11
 72
     8
 73
    43
  0
VERTEX
  5
819
  8
0
 62
     9
 10
0.0
 20
0.0
 30
0.0
 70
   128
 71
    35
 72
    41
 73
    40
  0
VERTEX
  5
81A
  8
0
 62
     9
 10
0.0
 20
0.0
 30
0.0
 70
   128
 71
     7
 72
    44
 73
     9
  0
VERTEX
  5
81B
  8
0
 62
     9
 10
0.0
 20
0.0
 30
0.0
 70
   128
 71
    33
 72
    45
 73
    37
  0
VERTEX
  5
81C
  8
0
 62
     9
 10
0.0
 20
0.0
 30
0.0
 70
   128
 71
    37
 72
    46
 73
    36
  0
VERTEX
  5
81D
  8
0
 62
     9
 10
0.0
 20
0.0
 30
0.0
 70
   128
 71
     1
 72
    42
 73
    44
  0
VERTEX
  5
81E
  8
0
 62
     9
 10
0.0
 20
0.0
 30
0.0
 70
   128
 71
    46
 72
    39
 73
    36
  0
VERTEX
  5
81F
  8
0
 62
     9
 10
0.0
 20
0.0
 30
0.0
 70
   128
 71
    46
 72
    38
 73
    39
  0
VERTEX
  5
820
  8
0
 62
     9
 10
0.0
 20
0.0
 30
0.0
 70
   128
 71
    15
 72
    14
 73
    47
  0
VERTEX
  5
821
  8
0
 62
     9
 10
0.0
 20
0.0
 30
0.0
 70
   128
 71
    47
 72
    14
 73
    17
  0
VERTEX
  5
822
  8
0
 62
     9
 10
0.0
 20
0.0
 30
0.0
 70
   128
 71
    20
 72
    47
 73
    17
  0
VERTEX
  5
823
  8
0
 62
     9
 10
0.0
 20
0.0
 30
0.0
 70
   128
 71
    20
 72
    22
 73
    48
  0
VERTEX
  5
824
  8
0
 62
     9
 10
0.0
 20
0.0
 30
0.0
 70
   128
 71
    22
 72
    38
 73
    48
  0
VERTEX
  5
825
  8
0
 62
     9
 10
0.0
 20
0.0
 30
0.0
 70
   128
 71
    45
 72
    33
 73
    34
  0
VERTEX
  5
826
  8
0
 62
     9
 10
0.0
 20
0.0
 30
0.0
 70
   128
 71
    44
 72
     8
 73
     9
  0
VERTEX
  5
827
  8
0
 62
     9
 10
0.0
 20
0.0
 30
0.0
 70
   128
 71
     2
 72
    42
 73
     1
  0
VERTEX
  5
828
  8
0
 62
     9
 10
0.0
 20
0.0
 30
0.0
 70
   128
 71
    41
 72
    45
 73
    34
  0
VERTEX
  5
829
  8
0
 62
     9
 10
0.0
 20
0.0
 30
0.0
 70
   128
 71
    45
 72
    46
 73
    37
  0
VERTEX
  5
82A
  8
0
 62
     9
 10
0.0
 20
0.0
 30
0.0
 70
   128
 71
    46
 72
    48
 73
    38
  0
VERTEX
  5
82B
  8
0
 62
     9
 10
0.0
 20
0.0
 30
0.0
 70
   128
 71
    48
 72
    47
 73
    20
  0
VERTEX
  5
82C
  8
0
 62
     9
 10
0.0
 20
0.0
 30
0.0
 70
   128
 71
    47
 72
    42
 73
    15
  0
VERTEX
  5
82D
  8
0
 62
     9
 10
0.0
 20
0.0
 30
0.0
 70
   128
 71
    44
 72
     7
 73
     1
  0
VERTEX
  5
82E
  8
0
 62
     9
 10
0.0
 20
0.0
 30
0.0
 70
   128
 71
    43
 72
     8
 73
    44
  0
VERTEX
  5
82F
  8
0
 62
     9
 10
0.0
 20
0.0
 30
0.0
 70
   128
 71
    51
 72
    50
 73
    49
  0
VERTEX
  5
830
  8
0
 62
     9
 10
0.0
 20
0.0
 30
0.0
 70
   128
 71
    51
 72
    52
 73
    50
  0
VERTEX
  5
831
  8
0
 62
     9
 10
0.0
 20
0.0
 30
0.0
 70
   128
 71
    53
 72
    50
 73
    52
  0
VERTEX
  5
832
  8
0
 62
     9
 10
0.0
 20
0.0
 30
0.0
 70
   128
 71
    49
 72
    54
 73
    51
  0
VERTEX
  5
833
  8
0
 62
     9
 10
0.0
 20
0.0
 30
0.0
 70
   128
 71
    54
 72
    49
 73
    55
  0
VERTEX
  5
834
  8
0
 62
     9
 10
0.0
 20
0.0
 30
0.0
 70
   128
 71
    57
 72
    56
 73
    53
  0
VERTEX
  5
835
  8
0
 62
     9
 10
0.0
 20
0.0
 30
0.0
 70
   128
 71
    53
 72
    52
 73
    57
  0
VERTEX
  5
836
  8
0
 62
     9
 10
0.0
 20
0.0
 30
0.0
 70
   128
 71
    58
 72
    56
 73
    57
  0
VERTEX
  5
837
  8
0
 62
     9
 10
0.0
 20
0.0
 30
0.0
 70
   128
 71
    58
 72
    59
 73
    56
  0
VERTEX
  5
838
  8
0
 62
     9
 10
0.0
 20
0.0
 30
0.0
 70
   128
 71
    62
 72
    61
 73
    60
  0
VERTEX
  5
839
  8
0
 62
     9
 10
0.0
 20
0.0
 30
0.0
 70
   128
 71
    62
 72
    63
 73
    61
  0
VERTEX
  5
83A
  8
0
 62
     9
 10
0.0
 20
0.0
 30
0.0
 70
   128
 71
    64
 72
    61
 73
    63
  0
VERTEX
  5
83B
  8
0
 62
     9
 10
0.0
 20
0.0
 30
0.0
 70
   128
 71
    60
 72
    58
 73
    62
  0
VERTEX
  5
83C
  8
0
 62
     9
 10
0.0
 20
0.0
 30
0.0
 70
   128
 71
    58
 72
    60
 73
    59
  0
VERTEX
  5
83D
  8
0
 62
     9
 10
0.0
 20
0.0
 30
0.0
 70
   128
 71
    66
 72
    65
 73
    64
  0
VERTEX
  5
83E
  8
0
 62
     9
 10
0.0
 20
0.0
 30
0.0
 70
   128
 71
    64
 72
    63
 73
    66
  0
VERTEX
  5
83F
  8
0
 62
     9
 10
0.0
 20
0.0
 30
0.0
 70
   128
 71
    67
 72
    65
 73
    66
  0
VERTEX
  5
840
  8
0
 62
     9
 10
0.0
 20
0.0
 30
0.0
 70
   128
 71
    67
 72
    68
 73
    65
  0
VERTEX
  5
841
  8
0
 62
     9
 10
0.0
 20
0.0
 30
0.0
 70
   128
 71
    71
 72
    70
 73
    69
  0
VERTEX
  5
842
  8
0
 62
     9
 10
0.0
 20
0.0
 30
0.0
 70
   128
 71
    71
 72
    72
 73
    70
  0
VERTEX
  5
843
  8
0
 62
     9
 10
0.0
 20
0.0
 30
0.0
 70
   128
 71
    73
 72
    70
 73
    72
  0
VERTEX
  5
844
  8
0
 62
     9
 10
0.0
 20
0.0
 30
0.0
 70
   128
 71
    69
 72
    67
 73
    71
  0
VERTEX
  5
845
  8
0
 62
     9
 10
0.0
 20
0.0
 30
0.0
 70
   128
 71
    67
 72
    69
 73
    68
  0
VERTEX
  5
846
  8
0
 62
     9
 10
0.0
 20
0.0
 30
0.0
 70
   128
 71
    75
 72
    74
 73
    73
  0
VERTEX
  5
847
  8
0
 62
     9
 10
0.0
 20
0.0
 30
0.0
 70
   128
 71
    73
 72
    72
 73
    75
  0
VERTEX
  5
848
  8
0
 62
     9
 10
0.0
 20
0.0
 30
0.0
 70
   128
 71
    76
 72
    74
 73
    75
  0
VERTEX
  5
849
  8
0
 62
     9
 10
0.0
 20
0.0
 30
0.0
 70
   128
 71
    76
 72
    77
 73
    74
  0
VERTEX
  5
84A
  8
0
 62
     9
 10
0.0
 20
0.0
 30
0.0
 70
   128
 71
    56
 72
    59
 73
    78
  0
VERTEX
  5
84B
  8
0
 62
     9
 10
0.0
 20
0.0
 30
0.0
 70
   128
 71
    79
 72
    53
 73
    56
  0
VERTEX
  5
84C
  8
0
 62
     9
 10
0.0
 20
0.0
 30
0.0
 70
   128
 71
    56
 72
    78
 73
    79
  0
VERTEX
  5
84D
  8
0
 62
     9
 10
0.0
 20
0.0
 30
0.0
 70
   128
 71
    53
 72
    80
 73
    50
  0
VERTEX
  5
84E
  8
0
 62
     9
 10
0.0
 20
0.0
 30
0.0
 70
   128
 71
    80
 72
    53
 73
    79
  0
VERTEX
  5
84F
  8
0
 62
     9
 10
0.0
 20
0.0
 30
0.0
 70
   128
 71
    49
 72
    50
 73
    81
  0
VERTEX
  5
850
  8
0
 62
     9
 10
0.0
 20
0.0
 30
0.0
 70
   128
 71
    80
 72
    81
 73
    50
  0
VERTEX
  5
851
  8
0
 62
     9
 10
0.0
 20
0.0
 30
0.0
 70
   128
 71
    49
 72
    81
 73
    82
  0
VERTEX
  5
852
  8
0
 62
     9
 10
0.0
 20
0.0
 30
0.0
 70
   128
 71
    55
 72
    49
 73
    82
  0
VERTEX
  5
853
  8
0
 62
     9
 10
0.0
 20
0.0
 30
0.0
 70
   128
 71
    59
 72
    83
 73
    78
  0
VERTEX
  5
854
  8
0
 62
     9
 10
0.0
 20
0.0
 30
0.0
 70
   128
 71
    83
 72
    60
 73
    84
  0
VERTEX
  5
855
  8
0
 62
     9
 10
0.0
 20
0.0
 30
0.0
 70
   128
 71
    60
 72
    83
 73
    59
  0
VERTEX
  5
856
  8
0
 62
     9
 10
0.0
 20
0.0
 30
0.0
 70
   128
 71
    60
 72
    61
 73
    84
  0
VERTEX
  5
857
  8
0
 62
     9
 10
0.0
 20
0.0
 30
0.0
 70
   128
 71
    64
 72
    85
 73
    61
  0
VERTEX
  5
858
  8
0
 62
     9
 10
0.0
 20
0.0
 30
0.0
 70
   128
 71
    84
 72
    61
 73
    85
  0
VERTEX
  5
859
  8
0
 62
     9
 10
0.0
 20
0.0
 30
0.0
 70
   128
 71
    64
 72
    65
 73
    86
  0
VERTEX
  5
85A
  8
0
 62
     9
 10
0.0
 20
0.0
 30
0.0
 70
   128
 71
    86
 72
    85
 73
    64
  0
VERTEX
  5
85B
  8
0
 62
     9
 10
0.0
 20
0.0
 30
0.0
 70
   128
 71
    65
 72
    87
 73
    86
  0
VERTEX
  5
85C
  8
0
 62
     9
 10
0.0
 20
0.0
 30
0.0
 70
   128
 71
    65
 72
    68
 73
    87
  0
VERTEX
  5
85D
  8
0
 62
     9
 10
0.0
 20
0.0
 30
0.0
 70
   128
 71
    82
 72
    89
 73
    88
  0
VERTEX
  5
85E
  8
0
 62
     9
 10
0.0
 20
0.0
 30
0.0
 70
   128
 71
    91
 72
    90
 73
    77
  0
VERTEX
  5
85F
  8
0
 62
     9
 10
0.0
 20
0.0
 30
0.0
 70
   128
 71
    94
 72
    93
 73
    92
  0
VERTEX
  5
860
  8
0
 62
     9
 10
0.0
 20
0.0
 30
0.0
 70
   128
 71
    96
 72
    95
 73
    73
  0
VERTEX
  5
861
  8
0
 62
     9
 10
0.0
 20
0.0
 30
0.0
 70
   128
 71
    96
 72
    74
 73
    97
  0
VERTEX
  5
862
  8
0
 62
     9
 10
0.0
 20
0.0
 30
0.0
 70
   128
 71
    70
 72
    98
 73
    69
  0
VERTEX
  5
863
  8
0
 62
     9
 10
0.0
 20
0.0
 30
0.0
 70
   128
 71
    98
 72
    70
 73
    95
  0
VERTEX
  5
864
  8
0
 62
     9
 10
0.0
 20
0.0
 30
0.0
 70
   128
 71
    68
 72
    69
 73
    87
  0
VERTEX
  5
865
  8
0
 62
     9
 10
0.0
 20
0.0
 30
0.0
 70
   128
 71
    98
 72
    87
 73
    69
  0
VERTEX
  5
866
  8
0
 62
     9
 10
0.0
 20
0.0
 30
0.0
 70
   128
 71
    74
 72
    96
 73
    73
  0
VERTEX
  5
867
  8
0
 62
     9
 10
0.0
 20
0.0
 30
0.0
 70
   128
 71
    95
 72
    70
 73
    73
  0
VERTEX
  5
868
  8
0
 62
     9
 10
0.0
 20
0.0
 30
0.0
 70
   128
 71
    90
 72
    97
 73
    77
  0
VERTEX
  5
869
  8
0
 62
     9
 10
0.0
 20
0.0
 30
0.0
 70
   128
 71
    97
 72
    74
 73
    77
  0
VERTEX
  5
86A
  8
0
 62
     9
 10
0.0
 20
0.0
 30
0.0
 70
   128
 71
    99
 72
    90
 73
    91
  0
VERTEX
  5
86B
  8
0
 62
     9
 10
0.0
 20
0.0
 30
0.0
 70
   128
 71
    99
 72
    94
 73
    92
  0
VERTEX
  5
86C
  8
0
 62
     9
 10
0.0
 20
0.0
 30
0.0
 70
   128
 71
    94
 72
    99
 73
    91
  0
VERTEX
  5
86D
  8
0
 62
     9
 10
0.0
 20
0.0
 30
0.0
 70
   128
 71
    93
 72
    88
 73
    89
  0
VERTEX
  5
86E
  8
0
 62
     9
 10
0.0
 20
0.0
 30
0.0
 70
   128
 71
    93
 72
    89
 73
    92
  0
VERTEX
  5
86F
  8
0
 62
     9
 10
0.0
 20
0.0
 30
0.0
 70
   128
 71
    88
 72
    55
 73
    82
  0
VERTEX
  5
870
  8
0
 62
     9
 10
0.0
 20
0.0
 30
0.0
 70
   128
 71
    81
 72
    80
 73
   100
  0
VERTEX
  5
871
  8
0
 62
     9
 10
0.0
 20
0.0
 30
0.0
 70
   128
 71
    85
 72
   101
 73
    84
  0
VERTEX
  5
872
  8
0
 62
     9
 10
0.0
 20
0.0
 30
0.0
 70
   128
 71
   100
 72
    79
 73
   102
  0
VERTEX
  5
873
  8
0
 62
     9
 10
0.0
 20
0.0
 30
0.0
 70
   128
 71
   104
 72
    83
 73
   103
  0
VERTEX
  5
874
  8
0
 62
     9
 10
0.0
 20
0.0
 30
0.0
 70
   128
 71
    81
 72
   105
 73
    82
  0
VERTEX
  5
875
  8
0
 62
     9
 10
0.0
 20
0.0
 30
0.0
 70
   128
 71
   106
 72
    89
 73
    82
  0
VERTEX
  5
876
  8
0
 62
     9
 10
0.0
 20
0.0
 30
0.0
 70
   128
 71
   108
 72
    98
 73
   107
  0
VERTEX
  5
877
  8
0
 62
     9
 10
0.0
 20
0.0
 30
0.0
 70
   128
 71
    83
 72
   104
 73
    78
  0
VERTEX
  5
878
  8
0
 62
     9
 10
0.0
 20
0.0
 30
0.0
 70
   128
 71
   109
 72
    95
 73
    96
  0
VERTEX
  5
879
  8
0
 62
     9
 10
0.0
 20
0.0
 30
0.0
 70
   128
 71
   110
 72
    92
 73
    89
  0
VERTEX
  5
87A
  8
0
 62
     9
 10
0.0
 20
0.0
 30
0.0
 70
   128
 71
   111
 72
    97
 73
    90
  0
VERTEX
  5
87B
  8
0
 62
     9
 10
0.0
 20
0.0
 30
0.0
 70
   128
 71
   111
 72
    99
 73
   112
  0
VERTEX
  5
87C
  8
0
 62
     9
 10
0.0
 20
0.0
 30
0.0
 70
   128
 71
   113
 72
    96
 73
    97
  0
VERTEX
  5
87D
  8
0
 62
     9
 10
0.0
 20
0.0
 30
0.0
 70
   128
 71
    87
 72
    98
 73
   108
  0
VERTEX
  5
87E
  8
0
 62
     9
 10
0.0
 20
0.0
 30
0.0
 70
   128
 71
   108
 72
   114
 73
    87
  0
VERTEX
  5
87F
  8
0
 62
     9
 10
0.0
 20
0.0
 30
0.0
 70
   128
 71
    95
 72
   109
 73
   107
  0
VERTEX
  5
880
  8
0
 62
     9
 10
0.0
 20
0.0
 30
0.0
 70
   128
 71
    95
 72
   107
 73
    98
  0
VERTEX
  5
881
  8
0
 62
     9
 10
0.0
 20
0.0
 30
0.0
 70
   128
 71
    96
 72
   113
 73
   109
  0
VERTEX
  5
882
  8
0
 62
     9
 10
0.0
 20
0.0
 30
0.0
 70
   128
 71
    97
 72
   111
 73
   113
  0
VERTEX
  5
883
  8
0
 62
     9
 10
0.0
 20
0.0
 30
0.0
 70
   128
 71
    99
 72
   111
 73
    90
  0
VERTEX
  5
884
  8
0
 62
     9
 10
0.0
 20
0.0
 30
0.0
 70
   128
 71
    92
 72
   110
 73
   112
  0
VERTEX
  5
885
  8
0
 62
     9
 10
0.0
 20
0.0
 30
0.0
 70
   128
 71
    92
 72
   112
 73
    99
  0
VERTEX
  5
886
  8
0
 62
     9
 10
0.0
 20
0.0
 30
0.0
 70
   128
 71
    89
 72
   106
 73
   110
  0
VERTEX
  5
887
  8
0
 62
     9
 10
0.0
 20
0.0
 30
0.0
 70
   128
 71
    82
 72
   105
 73
   106
  0
VERTEX
  5
888
  8
0
 62
     9
 10
0.0
 20
0.0
 30
0.0
 70
   128
 71
    81
 72
   100
 73
   105
  0
VERTEX
  5
889
  8
0
 62
     9
 10
0.0
 20
0.0
 30
0.0
 70
   128
 71
    79
 72
   100
 73
    80
  0
VERTEX
  5
88A
  8
0
 62
     9
 10
0.0
 20
0.0
 30
0.0
 70
   128
 71
    78
 72
   104
 73
   102
  0
VERTEX
  5
88B
  8
0
 62
     9
 10
0.0
 20
0.0
 30
0.0
 70
   128
 71
    78
 72
   102
 73
    79
  0
VERTEX
  5
88C
  8
0
 62
     9
 10
0.0
 20
0.0
 30
0.0
 70
   128
 71
    84
 72
   103
 73
    83
  0
VERTEX
  5
88D
  8
0
 62
     9
 10
0.0
 20
0.0
 30
0.0
 70
   128
 71
    85
 72
   114
 73
   101
  0
VERTEX
  5
88E
  8
0
 62
     9
 10
0.0
 20
0.0
 30
0.0
 70
   128
 71
    84
 72
   101
 73
   103
  0
VERTEX
  5
88F
  8
0
 62
     9
 10
0.0
 20
0.0
 30
0.0
 70
   128
 71
   114
 72
    86
 73
    87
  0
VERTEX
  5
890
  8
0
 62
     9
 10
0.0
 20
0.0
 30
0.0
 70
   128
 71
    85
 72
    86
 73
   114
  0
VERTEX
  5
891
  8
0
 62
     9
 10
0.0
 20
0.0
 30
0.0
 70
   128
 71
    54
 72
    55
 73
    88
  0
VERTEX
  5
892
  8
0
 62
     9
 10
0.0
 20
0.0
 30
0.0
 70
   128
 71
   116
 72
   115
 73
    93
  0
VERTEX
  5
893
  8
0
 62
     9
 10
0.0
 20
0.0
 30
0.0
 70
   128
 71
   117
 72
    91
 73
    76
  0
VERTEX
  5
894
  8
0
 62
     9
 10
0.0
 20
0.0
 30
0.0
 70
   128
 71
   117
 72
    94
 73
    91
  0
VERTEX
  5
895
  8
0
 62
     9
 10
0.0
 20
0.0
 30
0.0
 70
   128
 71
    94
 72
   117
 73
   116
  0
VERTEX
  5
896
  8
0
 62
     9
 10
0.0
 20
0.0
 30
0.0
 70
   128
 71
    91
 72
    77
 73
    76
  0
VERTEX
  5
897
  8
0
 62
     9
 10
0.0
 20
0.0
 30
0.0
 70
   128
 71
   116
 72
    93
 73
    94
  0
VERTEX
  5
898
  8
0
 62
     9
 10
0.0
 20
0.0
 30
0.0
 70
   128
 71
    88
 72
   115
 73
    54
  0
VERTEX
  5
899
  8
0
 62
     9
 10
0.0
 20
0.0
 30
0.0
 70
   128
 71
    88
 72
    93
 73
   115
  0
SEQEND
  5
89A
  8
0
 62
     9
  0
ENDBLK
  5
89D
  8
0
  0
BLOCK
  8
0
  2
45
 70
     0
 10
0.0
 20
0.0
 30
0.0
  3
45
  1

  0
POLYLINE
  5
89F
  8
0
 62
     9
 66
     1
 10
0.0
 20
0.0
 30
0.0
 70
    64
 71
    12
 72
    24
  0
VERTEX
  5
8A0
  8
0
 10
42.49998092651367
 20
42.5
 30
-0.0000000000000018
 70
   192
  0
VERTEX
  5
8A1
  8
0
 10
-42.50001907348633
 20
42.5
 30
-0.0000000000000018
 70
   192
  0
VERTEX
  5
8A2
  8
0
 10
42.49998092651367
 20
42.5
 30
10.0
 70
   192
  0
VERTEX
  5
8A3
  8
0
 10
-42.50001907348633
 20
42.5
 30
10.0
 70
   192
  0
VERTEX
  5
8A4
  8
0
 10
42.49998092651367
 20
-42.5
 30
-0.0000000000000036
 70
   192
  0
VERTEX
  5
8A5
  8
0
 10
42.49998092651367
 20
-42.5
 30
10.0
 70
   192
  0
VERTEX
  5
8A6
  8
0
 10
-42.50001907348633
 20
-42.5
 30
10.0
 70
   192
  0
VERTEX
  5
8A7
  8
0
 10
-42.50001907348633
 20
-42.5
 30
-0.0000000000000018
 70
   192
  0
VERTEX
  5
8A8
  8
0
 10
42.49998092651367
 20
-42.5
 30
-0.0000000000000035
 70
   192
  0
VERTEX
  5
8A9
  8
0
 10
-42.50001907348633
 20
42.5
 30
-0.0000000000000035
 70
   192
  0
VERTEX
  5
8AA
  8
0
 10
42.49998092651367
 20
42.5
 30
-0.0000000000000035
 70
   192
  0
VERTEX
  5
8AB
  8
0
 10
-42.50001907348633
 20
-42.5
 30
-0.0000000000000035
 70
   192
  0
VERTEX
  5
8AC
  8
0
 62
     9
 10
0.0
 20
0.0
 30
0.0
 70
   128
 71
     3
 72
     2
 73
     1
  0
VERTEX
  5
8AD
  8
0
 62
     9
 10
0.0
 20
0.0
 30
0.0
 70
   128
 71
     2
 72
     3
 73
     4
  0
VERTEX
  5
8AE
  8
0
 62
     9
 10
0.0
 20
0.0
 30
0.0
 70
   128
 71
     6
 72
     1
 73
     5
  0
VERTEX
  5
8AF
  8
0
 62
     9
 10
0.0
 20
0.0
 30
0.0
 70
   128
 71
     1
 72
     6
 73
     3
  0
VERTEX
  5
8B0
  8
0
 62
     9
 10
0.0
 20
0.0
 30
0.0
 70
   128
 71
     8
 72
     7
 73
     5
  0
VERTEX
  5
8B1
  8
0
 62
     9
 10
0.0
 20
0.0
 30
0.0
 70
   128
 71
     7
 72
     6
 73
     5
  0
VERTEX
  5
8B2
  8
0
 62
     9
 10
0.0
 20
0.0
 30
0.0
 70
   128
 71
     2
 72
     4
 73
     8
  0
VERTEX
  5
8B3
  8
0
 62
     9
 10
0.0
 20
0.0
 30
0.0
 70
   128
 71
     4
 72
     7
 73
     8
  0
VERTEX
  5
8B4
  8
0
 62
     9
 10
0.0
 20
0.0
 30
0.0
 70
   128
 71
     1
 72
     2
 73
     5
  0
VERTEX
  5
8B5
  8
0
 62
     9
 10
0.0
 20
0.0
 30
0.0
 70
   128
 71
     8
 72
     5
 73
     2
  0
VERTEX
  5
8B6
  8
0
 62
     9
 10
0.0
 20
0.0
 30
0.0
 70
   128
 71
     3
 72
     6
 73
     4
  0
VERTEX
  5
8B7
  8
0
 62
     9
 10
0.0
 20
0.0
 30
0.0
 70
   128
 71
     7
 72
     4
 73
     6
  0
VERTEX
  5
8B8
  8
0
 62
     9
 10
0.0
 20
0.0
 30
0.0
 70
   128
 71
     3
 72
     6
 73
     4
  0
VERTEX
  5
8B9
  8
0
 62
     9
 10
0.0
 20
0.0
 30
0.0
 70
   128
 71
     7
 72
     4
 73
     6
  0
VERTEX
  5
8BA
  8
0
 62
     9
 10
0.0
 20
0.0
 30
0.0
 70
   128
 71
    11
 72
    10
 73
     9
  0
VERTEX
  5
8BB
  8
0
 62
     9
 10
0.0
 20
0.0
 30
0.0
 70
   128
 71
    12
 72
     9
 73
    10
  0
VERTEX
  5
8BC
  8
0
 62
     9
 10
0.0
 20
0.0
 30
0.0
 70
   128
 71
    10
 72
     4
 73
    12
  0
VERTEX
  5
8BD
  8
0
 62
     9
 10
0.0
 20
0.0
 30
0.0
 70
   128
 71
     4
 72
     7
 73
    12
  0
VERTEX
  5
8BE
  8
0
 62
     9
 10
0.0
 20
0.0
 30
0.0
 70
   128
 71
    12
 72
     7
 73
     9
  0
VERTEX
  5
8BF
  8
0
 62
     9
 10
0.0
 20
0.0
 30
0.0
 70
   128
 71
     7
 72
     6
 73
     9
  0
VERTEX
  5
8C0
  8
0
 62
     9
 10
0.0
 20
0.0
 30
0.0
 70
   128
 71
     6
 72
    11
 73
     9
  0
VERTEX
  5
8C1
  8
0
 62
     9
 10
0.0
 20
0.0
 30
0.0
 70
   128
 71
    11
 72
     6
 73
     3
  0
VERTEX
  5
8C2
  8
0
 62
     9
 10
0.0
 20
0.0
 30
0.0
 70
   128
 71
     3
 72
    10
 73
    11
  0
VERTEX
  5
8C3
  8
0
 62
     9
 10
0.0
 20
0.0
 30
0.0
 70
   128
 71
    10
 72
     3
 73
     4
  0
SEQEND
  5
8C4
  8
0
 62
     9
  0
ENDBLK
  5
8C7
  8
0
  0
BLOCK
  8
0
  2
46
 70
     0
 10
0.0
 20
0.0
 30
0.0
  3
46
  1

  0
POLYLINE
  5
8C9
  8
0
 62
     9
 66
     1
 10
0.0
 20
0.0
 30
0.0
 70
    64
 71
   138
 72
   215
  0
VERTEX
  5
8CA
  8
0
 10
-25.87791633605957
 20
4.096002578735352
 30
10.10000038146973
 70
   192
  0
VERTEX
  5
8CB
  8
0
 10
-24.91949844360352
 20
8.091716766357422
 30
10.10000038146973
 70
   192
  0
VERTEX
  5
8CC
  8
0
 10
-25.0993595123291
 20
6.385341644287109
 30
10.39999961853027
 70
   192
  0
VERTEX
  5
8CD
  8
0
 10
-25.80637741088867
 20
2.166826009750366
 30
10.39999961853027
 70
   192
  0
VERTEX
  5
8CE
  8
0
 10
-26.20000076293945
 20
0.0000000000000022
 30
10.10000038146973
 70
   192
  0
VERTEX
  5
8CF
  8
0
 10
-23.71813774108887
 20
10.40489673614502
 30
10.39999961853027
 70
   192
  0
VERTEX
  5
8D0
  8
0
 10
-23.34800910949707
 20
11.88930130004883
 30
10.10000038146973
 70
   192
  0
VERTEX
  5
8D1
  8
0
 10
-21.69500160217285
 20
14.14753246307373
 30
10.39999961853027
 70
   192
  0
VERTEX
  5
8D2
  8
0
 10
-19.05401611328125
 20
17.54263305664062
 30
10.39999961853027
 70
   192
  0
VERTEX
  5
8D3
  8
0
 10
-18.53128814697266
 20
18.52438735961914
 30
10.10000038146973
 70
   192
  0
VERTEX
  5
8D4
  8
0
 10
-15.88238048553467
 20
20.45622825622559
 30
10.39999961853027
 70
   192
  0
VERTEX
  5
8D5
  8
0
 10
-21.20142555236816
 20
15.39566421508789
 30
10.10000038146973
 70
   192
  0
VERTEX
  5
8D6
  8
0
 10
-15.39967155456543
 20
21.18126487731934
 30
10.10000038146973
 70
   192
  0
VERTEX
  5
8D7
  8
0
 10
-11.85442638397217
 20
23.26552391052246
 30
10.10000038146973
 70
   192
  0
VERTEX
  5
8D8
  8
0
 10
-12.3047571182251
 20
22.7893238067627
 30
10.39999961853027
 70
   192
  0
VERTEX
  5
8D9
  8
0
 10
-8.113855361938477
 20
24.93715476989746
 30
10.10000038146973
 70
   192
  0
VERTEX
  5
8DA
  8
0
 10
-8.41066837310791
 20
24.49688529968262
 30
10.39999961853027
 70
   192
  0
VERTEX
  5
8DB
  8
0
 10
-4.290879249572754
 20
25.54131698608398
 30
10.39999961853027
 70
   192
  0
VERTEX
  5
8DC
  8
0
 10
-4.101900100708008
 20
25.87792015075684
 30
10.10000038146973
 70
   192
  0
VERTEX
  5
8DD
  8
0
 10
0.0000000000000132
 20
25.89999961853027
 30
10.39999961853027
 70
   192
  0
VERTEX
  5
8DE
  8
0
 10
0.0000000000000134
 20
26.20000076293945
 30
10.10000038146973
 70
   192
  0
VERTEX
  5
8DF
  8
0
 10
-25.87641525268555
 20
-4.100814819335938
 30
10.10000038146973
 70
   192
  0
VERTEX
  5
8E0
  8
0
 10
-25.81095314025879
 20
-2.137419700622559
 30
10.39999961853027
 70
   192
  0
VERTEX
  5
8E1
  8
0
 10
-25.10482025146484
 20
-6.372159957885742
 30
10.39999961853027
 70
   192
  0
VERTEX
  5
8E2
  8
0
 10
-24.9155158996582
 20
-8.09841251373291
 30
10.10000038146973
 70
   192
  0
VERTEX
  5
8E3
  8
0
 10
-23.72078895568848
 20
-10.39849472045898
 30
10.39999961853027
 70
   192
  0
VERTEX
  5
8E4
  8
0
 10
-23.34175872802734
 20
-11.89492797851562
 30
10.10000038146973
 70
   192
  0
VERTEX
  5
8E5
  8
0
 10
-21.1945972442627
 20
-15.39777660369873
 30
10.10000038146973
 70
   192
  0
VERTEX
  5
8E6
  8
0
 10
-21.6964054107666
 20
-14.14414310455322
 30
10.39999961853027
 70
   192
  0
VERTEX
  5
8E7
  8
0
 10
-19.06598663330078
 20
-17.52624893188477
 30
10.39999961853027
 70
   192
  0
VERTEX
  5
8E8
  8
0
 10
-18.52738189697266
 20
-18.52193069458008
 30
10.10000038146973
 70
   192
  0
VERTEX
  5
8E9
  8
0
 10
-15.90531730651855
 20
-20.43946838378906
 30
10.39999961853027
 70
   192
  0
VERTEX
  5
8EA
  8
0
 10
-15.39233112335205
 20
-21.18392562866211
 30
10.10000038146973
 70
   192
  0
VERTEX
  5
8EB
  8
0
 10
-11.88455295562744
 20
-23.33035659790039
 30
10.10000038146973
 70
   192
  0
VERTEX
  5
8EC
  8
0
 10
-12.32170486450195
 20
-22.78230285644531
 30
10.39999961853027
 70
   192
  0
VERTEX
  5
8ED
  8
0
 10
-8.425355911254883
 20
-24.49080085754395
 30
10.39999961853027
 70
   192
  0
VERTEX
  5
8EE
  8
0
 10
-8.091119766235352
 20
-24.90780448913574
 30
10.10000038146973
 70
   192
  0
VERTEX
  5
8EF
  8
0
 10
-4.290879249572754
 20
-25.54131698608398
 30
10.39999961853027
 70
   192
  0
VERTEX
  5
8F0
  8
0
 10
-4.096574306488037
 20
-25.87727355957031
 30
10.10000038146973
 70
   192
  0
VERTEX
  5
8F1
  8
0
 10
-0.0000000000000164
 20
-25.89999961853027
 30
10.39999961853027
 70
   192
  0
VERTEX
  5
8F2
  8
0
 10
-0.0000000000000166
 20
-26.20000076293945
 30
10.10000038146973
 70
   192
  0
VERTEX
  5
8F3
  8
0
 10
-22.92381477355957
 20
-12.69003677368164
 30
7.5
 70
   192
  0
VERTEX
  5
8F4
  8
0
 10
-19.39702415466309
 20
17.61236763000488
 30
7.5
 70
   192
  0
VERTEX
  5
8F5
  8
0
 10
-20.32310485839844
 20
-16.54224014282227
 30
7.5
 70
   192
  0
VERTEX
  5
8F6
  8
0
 10
-17.08132934570312
 20
-19.87395095825195
 30
7.5
 70
   192
  0
VERTEX
  5
8F7
  8
0
 10
-13.30513572692871
 20
-22.57616233825684
 30
7.5
 70
   192
  0
VERTEX
  5
8F8
  8
0
 10
-9.11002254486084
 20
-24.56746673583984
 30
7.5
 70
   192
  0
VERTEX
  5
8F9
  8
0
 10
-4.629327297210693
 20
-25.79035949707031
 30
7.5
 70
   192
  0
VERTEX
  5
8FA
  8
0
 10
-0.0000000000000233
 20
-26.20000076293945
 30
7.5
 70
   192
  0
VERTEX
  5
8FB
  8
0
 10
-24.8029613494873
 20
-8.4423246383667
 30
7.5
 70
   192
  0
VERTEX
  5
8FC
  8
0
 10
-25.90418243408203
 20
-3.929681777954102
 30
7.5
 70
   192
  0
VERTEX
  5
8FD
  8
0
 10
-26.18880844116211
 20
0.7089070081710815
 30
7.5
 70
   192
  0
VERTEX
  5
8FE
  8
0
 10
-25.64805603027344
 20
5.326383590698242
 30
7.5
 70
   192
  0
VERTEX
  5
8FF
  8
0
 10
-24.30324172973633
 20
9.77210521697998
 30
7.5
 70
   192
  0
VERTEX
  5
900
  8
0
 10
-22.20109176635742
 20
13.91277122497559
 30
7.5
 70
   192
  0
VERTEX
  5
901
  8
0
 10
-13.75768756866455
 20
22.29834747314453
 30
7.5
 70
   192
  0
VERTEX
  5
902
  8
0
 10
-9.432087898254395
 20
24.41184425354004
 30
7.5
 70
   192
  0
VERTEX
  5
903
  8
0
 10
-17.61236763000488
 20
19.39702415466309
 30
7.5
 70
   192
  0
VERTEX
  5
904
  8
0
 10
-4.798537731170654
 20
25.75527191162109
 30
7.5
 70
   192
  0
VERTEX
  5
905
  8
0
 10
0.0000000000000148
 20
26.20000076293945
 30
7.5
 70
   192
  0
VERTEX
  5
906
  8
0
 10
24.6341609954834
 20
-7.999063968658447
 30
10.39999961853027
 70
   192
  0
VERTEX
  5
907
  8
0
 10
23.08066558837891
 20
-11.75316429138184
 30
10.39999961853027
 70
   192
  0
VERTEX
  5
908
  8
0
 10
15.22333908081055
 20
-20.9387321472168
 30
10.39999961853027
 70
   192
  0
VERTEX
  5
909
  8
0
 10
25.89999961853027
 20
-0.0000000000000084
 30
10.39999961853027
 70
   192
  0
VERTEX
  5
90A
  8
0
 10
25.58160400390625
 20
-4.049101829528809
 30
10.39999961853027
 70
   192
  0
VERTEX
  5
90B
  8
0
 10
23.07448768615723
 20
11.75872707366943
 30
10.39999961853027
 70
   192
  0
VERTEX
  5
90C
  8
0
 10
7.998473167419434
 20
24.62260055541992
 30
10.39999961853027
 70
   192
  0
VERTEX
  5
90D
  8
0
 10
15.21608257293701
 20
20.94136047363281
 30
10.39999961853027
 70
   192
  0
VERTEX
  5
90E
  8
0
 10
20.95191192626953
 20
15.22146606445312
 30
10.39999961853027
 70
   192
  0
VERTEX
  5
90F
  8
0
 10
25.58012008666992
 20
4.053859233856201
 30
10.39999961853027
 70
   192
  0
VERTEX
  5
910
  8
0
 10
24.63022422790527
 20
8.005681991577148
 30
10.39999961853027
 70
   192
  0
VERTEX
  5
911
  8
0
 10
18.31523704528809
 20
18.30984687805176
 30
10.39999961853027
 70
   192
  0
VERTEX
  5
912
  8
0
 10
4.049666881561279
 20
25.58096885681152
 30
10.39999961853027
 70
   192
  0
VERTEX
  5
913
  8
0
 10
11.74847030639648
 20
23.0632152557373
 30
10.39999961853027
 70
   192
  0
VERTEX
  5
914
  8
0
 10
20.95866012573242
 20
-15.2193775177002
 30
10.39999961853027
 70
   192
  0
VERTEX
  5
915
  8
0
 10
18.3190975189209
 20
-18.31227684020996
 30
10.39999961853027
 70
   192
  0
VERTEX
  5
916
  8
0
 10
11.71868801116943
 20
-22.99912643432617
 30
10.39999961853027
 70
   192
  0
VERTEX
  5
917
  8
0
 10
8.020949363708496
 20
-24.65161514282227
 30
10.39999961853027
 70
   192
  0
VERTEX
  5
918
  8
0
 10
4.054931640625
 20
-25.58160781860352
 30
10.39999961853027
 70
   192
  0
VERTEX
  5
919
  8
0
 10
4.096574306488037
 20
-25.87727355957031
 30
10.10000038146973
 70
   192
  0
VERTEX
  5
91A
  8
0
 10
4.546490669250488
 20
-25.80112838745117
 30
7.5
 70
   192
  0
VERTEX
  5
91B
  8
0
 10
18.52738189697266
 20
-18.52193069458008
 30
10.10000038146973
 70
   192
  0
VERTEX
  5
91C
  8
0
 10
16.83626365661621
 20
-20.06052207946777
 30
7.5
 70
   192
  0
VERTEX
  5
91D
  8
0
 10
15.39233112335205
 20
-21.18392562866211
 30
10.10000038146973
 70
   192
  0
VERTEX
  5
91E
  8
0
 10
8.954398155212402
 20
-24.60822296142578
 30
7.5
 70
   192
  0
VERTEX
  5
91F
  8
0
 10
8.091119766235352
 20
-24.90780448913574
 30
10.10000038146973
 70
   192
  0
VERTEX
  5
920
  8
0
 10
11.88455295562744
 20
-23.33035659790039
 30
10.10000038146973
 70
   192
  0
VERTEX
  5
921
  8
0
 10
25.80068969726562
 20
-4.552521228790283
 30
7.5
 70
   192
  0
VERTEX
  5
922
  8
0
 10
24.9155158996582
 20
-8.09841251373291
 30
10.10000038146973
 70
   192
  0
VERTEX
  5
923
  8
0
 10
25.87641525268555
 20
-4.100814819335938
 30
10.10000038146973
 70
   192
  0
VERTEX
  5
924
  8
0
 10
22.68893623352051
 20
-13.09710597991943
 30
7.5
 70
   192
  0
VERTEX
  5
925
  8
0
 10
21.1945972442627
 20
-15.39777660369873
 30
10.10000038146973
 70
   192
  0
VERTEX
  5
926
  8
0
 10
23.34175872802734
 20
-11.89492797851562
 30
10.10000038146973
 70
   192
  0
VERTEX
  5
927
  8
0
 10
24.62211227416992
 20
8.955963134765625
 30
7.5
 70
   192
  0
VERTEX
  5
928
  8
0
 10
25.80265045166016
 20
4.545916080474854
 30
7.5
 70
   192
  0
VERTEX
  5
929
  8
0
 10
24.91949844360352
 20
8.091716766357422
 30
10.10000038146973
 70
   192
  0
VERTEX
  5
92A
  8
0
 10
25.87791633605957
 20
4.096002578735352
 30
10.10000038146973
 70
   192
  0
VERTEX
  5
92B
  8
0
 10
26.20000076293945
 20
-0.0000000000000084
 30
7.5
 70
   192
  0
VERTEX
  5
92C
  8
0
 10
26.20000076293945
 20
-0.0000000000000311
 30
10.10000038146973
 70
   192
  0
VERTEX
  5
92D
  8
0
 10
18.53128814697266
 20
18.52438735961914
 30
10.10000038146973
 70
   192
  0
VERTEX
  5
92E
  8
0
 10
20.0765380859375
 20
16.83688545227051
 30
7.5
 70
   192
  0
VERTEX
  5
92F
  8
0
 10
21.20142555236816
 20
15.39566421508789
 30
10.10000038146973
 70
   192
  0
VERTEX
  5
930
  8
0
 10
23.34800910949707
 20
11.88930130004883
 30
10.10000038146973
 70
   192
  0
VERTEX
  5
931
  8
0
 10
22.69250869750977
 20
13.09811210632324
 30
7.5
 70
   192
  0
VERTEX
  5
932
  8
0
 10
13.04642677307129
 20
22.59385108947754
 30
7.5
 70
   192
  0
VERTEX
  5
933
  8
0
 10
16.84895133972168
 20
20.06563377380371
 30
7.5
 70
   192
  0
VERTEX
  5
934
  8
0
 10
15.39967155456543
 20
21.18126487731934
 30
10.10000038146973
 70
   192
  0
VERTEX
  5
935
  8
0
 10
11.85442638397217
 20
23.26552391052246
 30
10.10000038146973
 70
   192
  0
VERTEX
  5
936
  8
0
 10
8.97870922088623
 20
24.64042091369629
 30
7.5
 70
   192
  0
VERTEX
  5
937
  8
0
 10
8.113855361938477
 20
24.93715476989746
 30
10.10000038146973
 70
   192
  0
VERTEX
  5
938
  8
0
 10
4.55403995513916
 20
25.80272483825684
 30
7.5
 70
   192
  0
VERTEX
  5
939
  8
0
 10
4.101900100708008
 20
25.87792015075684
 30
10.10000038146973
 70
   192
  0
VERTEX
  5
93A
  8
0
 10
24.61799621582031
 20
-8.962058067321777
 30
7.5
 70
   192
  0
VERTEX
  5
93B
  8
0
 10
20.06878852844238
 20
-16.84067916870117
 30
7.5
 70
   192
  0
VERTEX
  5
93C
  8
0
 10
13.0924711227417
 20
-22.67575836181641
 30
7.5
 70
   192
  0
VERTEX
  5
93D
  8
0
 10
5.949999809265137
 20
-5.550000190734863
 30
-0.0000000000000001
 70
   192
  0
VERTEX
  5
93E
  8
0
 10
18.5182991027832
 20
-7.013159275054932
 30
-0.0000000000000002
 70
   192
  0
VERTEX
  5
93F
  8
0
 10
19.65562438964844
 20
2.398386478424072
 30
0.0000000000000001
 70
   192
  0
VERTEX
  5
940
  8
0
 10
4.746184825897217
 20
-19.22476387023926
 30
-0.0000000000000005
 70
   192
  0
VERTEX
  5
941
  8
0
 10
13.13739967346191
 20
-14.81639957427979
 30
-0.0000000000000004
 70
   192
  0
VERTEX
  5
942
  8
0
 10
4.207285404205322
 20
-9.757285118103027
 30
-0.0000000000000002
 70
   192
  0
VERTEX
  5
943
  8
0
 10
16.29213523864746
 20
11.25513744354248
 30
0.0000000000000003
 70
   192
  0
VERTEX
  5
944
  8
0
 10
5.949999809265137
 20
5.550000190734863
 30
0.0000000000000001
 70
   192
  0
VERTEX
  5
945
  8
0
 10
9.191246032714844
 20
17.53852272033691
 30
0.0000000000000004
 70
   192
  0
VERTEX
  5
946
  8
0
 10
0.0000000000002007
 20
19.80227470397949
 30
0.0000000000000005
 70
   192
  0
VERTEX
  5
947
  8
0
 10
0.0000000000000053
 20
11.5
 30
0.0000000000000003
 70
   192
  0
VERTEX
  5
948
  8
0
 10
-13.1266565322876
 20
-14.82583236694336
 30
-0.0000000000000004
 70
   192
  0
VERTEX
  5
949
  8
0
 10
-5.949999809265137
 20
-5.550000190734863
 30
-0.0000000000000001
 70
   192
  0
VERTEX
  5
94A
  8
0
 10
-18.51619529724121
 20
-7.02055025100708
 30
-0.0000000000000002
 70
   192
  0
VERTEX
  5
94B
  8
0
 10
-4.207285404205322
 20
-9.757285118103027
 30
-0.0000000000000002
 70
   192
  0
VERTEX
  5
94C
  8
0
 10
-19.65792274475098
 20
2.379428148269653
 30
0.0000000000000001
 70
   192
  0
VERTEX
  5
94D
  8
0
 10
-0.0000000000000053
 20
-11.5
 30
-0.0000000000000003
 70
   192
  0
VERTEX
  5
94E
  8
0
 10
-4.736106395721436
 20
-19.22763252258301
 30
-0.0000000000000005
 70
   192
  0
VERTEX
  5
94F
  8
0
 10
-9.21139144897461
 20
17.52792549133301
 30
0.0000000000000004
 70
   192
  0
VERTEX
  5
950
  8
0
 10
-4.207285404205322
 20
9.757285118103027
 30
0.0000000000000002
 70
   192
  0
VERTEX
  5
951
  8
0
 10
-16.29528045654297
 20
11.25155639648438
 30
0.0000000000000003
 70
   192
  0
VERTEX
  5
952
  8
0
 10
-5.949999809265137
 20
5.550000190734863
 30
0.0000000000000001
 70
   192
  0
VERTEX
  5
953
  8
0
 10
4.207285404205322
 20
9.757285118103027
 30
0.0000000000000002
 70
   192
  0
VERTEX
  5
954
  8
0
 62
     9
 10
0.0
 20
0.0
 30
0.0
 70
   128
 71
     3
 72
     2
 73
     1
  0
VERTEX
  5
955
  8
0
 62
     9
 10
0.0
 20
0.0
 30
0.0
 70
   128
 71
     1
 72
     5
 73
     4
  0
VERTEX
  5
956
  8
0
 62
     9
 10
0.0
 20
0.0
 30
0.0
 70
   128
 71
     7
 72
     2
 73
     6
  0
VERTEX
  5
957
  8
0
 62
     9
 10
0.0
 20
0.0
 30
0.0
 70
   128
 71
     2
 72
     3
 73
     6
  0
VERTEX
  5
958
  8
0
 62
     9
 10
0.0
 20
0.0
 30
0.0
 70
   128
 71
     6
 72
     8
 73
     7
  0
VERTEX
  5
959
  8
0
 62
     9
 10
0.0
 20
0.0
 30
0.0
 70
   128
 71
    11
 72
    10
 73
     9
  0
VERTEX
  5
95A
  8
0
 62
     9
 10
0.0
 20
0.0
 30
0.0
 70
   128
 71
     7
 72
     8
 73
    12
  0
VERTEX
  5
95B
  8
0
 62
     9
 10
0.0
 20
0.0
 30
0.0
 70
   128
 71
    11
 72
    13
 73
    10
  0
VERTEX
  5
95C
  8
0
 62
     9
 10
0.0
 20
0.0
 30
0.0
 70
   128
 71
    12
 72
     9
 73
    10
  0
VERTEX
  5
95D
  8
0
 62
     9
 10
0.0
 20
0.0
 30
0.0
 70
   128
 71
     3
 72
     1
 73
     4
  0
VERTEX
  5
95E
  8
0
 62
     9
 10
0.0
 20
0.0
 30
0.0
 70
   128
 71
     8
 72
     9
 73
    12
  0
VERTEX
  5
95F
  8
0
 62
     9
 10
0.0
 20
0.0
 30
0.0
 70
   128
 71
    13
 72
    15
 73
    14
  0
VERTEX
  5
960
  8
0
 62
     9
 10
0.0
 20
0.0
 30
0.0
 70
   128
 71
    17
 72
    16
 73
    14
  0
VERTEX
  5
961
  8
0
 62
     9
 10
0.0
 20
0.0
 30
0.0
 70
   128
 71
    17
 72
    14
 73
    15
  0
VERTEX
  5
962
  8
0
 62
     9
 10
0.0
 20
0.0
 30
0.0
 70
   128
 71
    11
 72
    15
 73
    13
  0
VERTEX
  5
963
  8
0
 62
     9
 10
0.0
 20
0.0
 30
0.0
 70
   128
 71
    17
 72
    18
 73
    16
  0
VERTEX
  5
964
  8
0
 62
     9
 10
0.0
 20
0.0
 30
0.0
 70
   128
 71
    18
 72
    20
 73
    19
  0
VERTEX
  5
965
  8
0
 62
     9
 10
0.0
 20
0.0
 30
0.0
 70
   128
 71
    21
 72
    19
 73
    20
  0
VERTEX
  5
966
  8
0
 62
     9
 10
0.0
 20
0.0
 30
0.0
 70
   128
 71
    16
 72
    18
 73
    19
  0
VERTEX
  5
967
  8
0
 62
     9
 10
0.0
 20
0.0
 30
0.0
 70
   128
 71
    23
 72
     5
 73
    22
  0
VERTEX
  5
968
  8
0
 62
     9
 10
0.0
 20
0.0
 30
0.0
 70
   128
 71
     5
 72
    23
 73
     4
  0
VERTEX
  5
969
  8
0
 62
     9
 10
0.0
 20
0.0
 30
0.0
 70
   128
 71
    25
 72
    24
 73
    22
  0
VERTEX
  5
96A
  8
0
 62
     9
 10
0.0
 20
0.0
 30
0.0
 70
   128
 71
    23
 72
    22
 73
    24
  0
VERTEX
  5
96B
  8
0
 62
     9
 10
0.0
 20
0.0
 30
0.0
 70
   128
 71
    25
 72
    27
 73
    26
  0
VERTEX
  5
96C
  8
0
 62
     9
 10
0.0
 20
0.0
 30
0.0
 70
   128
 71
    26
 72
    24
 73
    25
  0
VERTEX
  5
96D
  8
0
 62
     9
 10
0.0
 20
0.0
 30
0.0
 70
   128
 71
    29
 72
    27
 73
    28
  0
VERTEX
  5
96E
  8
0
 62
     9
 10
0.0
 20
0.0
 30
0.0
 70
   128
 71
    27
 72
    29
 73
    26
  0
VERTEX
  5
96F
  8
0
 62
     9
 10
0.0
 20
0.0
 30
0.0
 70
   128
 71
    31
 72
    30
 73
    28
  0
VERTEX
  5
970
  8
0
 62
     9
 10
0.0
 20
0.0
 30
0.0
 70
   128
 71
    29
 72
    28
 73
    30
  0
VERTEX
  5
971
  8
0
 62
     9
 10
0.0
 20
0.0
 30
0.0
 70
   128
 71
    31
 72
    33
 73
    32
  0
VERTEX
  5
972
  8
0
 62
     9
 10
0.0
 20
0.0
 30
0.0
 70
   128
 71
    32
 72
    30
 73
    31
  0
VERTEX
  5
973
  8
0
 62
     9
 10
0.0
 20
0.0
 30
0.0
 70
   128
 71
    35
 72
    33
 73
    34
  0
VERTEX
  5
974
  8
0
 62
     9
 10
0.0
 20
0.0
 30
0.0
 70
   128
 71
    33
 72
    35
 73
    32
  0
VERTEX
  5
975
  8
0
 62
     9
 10
0.0
 20
0.0
 30
0.0
 70
   128
 71
    37
 72
    36
 73
    34
  0
VERTEX
  5
976
  8
0
 62
     9
 10
0.0
 20
0.0
 30
0.0
 70
   128
 71
    35
 72
    34
 73
    36
  0
VERTEX
  5
977
  8
0
 62
     9
 10
0.0
 20
0.0
 30
0.0
 70
   128
 71
    37
 72
    39
 73
    38
  0
VERTEX
  5
978
  8
0
 62
     9
 10
0.0
 20
0.0
 30
0.0
 70
   128
 71
    38
 72
    36
 73
    37
  0
VERTEX
  5
979
  8
0
 62
     9
 10
0.0
 20
0.0
 30
0.0
 70
   128
 71
    39
 72
    40
 73
    38
  0
VERTEX
  5
97A
  8
0
 62
     9
 10
0.0
 20
0.0
 30
0.0
 70
   128
 71
    39
 72
    41
 73
    40
  0
VERTEX
  5
97B
  8
0
 62
     9
 10
0.0
 20
0.0
 30
0.0
 70
   128
 71
    42
 72
    28
 73
    27
  0
VERTEX
  5
97C
  8
0
 62
     9
 10
0.0
 20
0.0
 30
0.0
 70
   128
 71
    43
 72
    12
 73
    10
  0
VERTEX
  5
97D
  8
0
 62
     9
 10
0.0
 20
0.0
 30
0.0
 70
   128
 71
    28
 72
    44
 73
    31
  0
VERTEX
  5
97E
  8
0
 62
     9
 10
0.0
 20
0.0
 30
0.0
 70
   128
 71
    44
 72
    28
 73
    42
  0
VERTEX
  5
97F
  8
0
 62
     9
 10
0.0
 20
0.0
 30
0.0
 70
   128
 71
    33
 72
    31
 73
    45
  0
VERTEX
  5
980
  8
0
 62
     9
 10
0.0
 20
0.0
 30
0.0
 70
   128
 71
    44
 72
    45
 73
    31
  0
VERTEX
  5
981
  8
0
 62
     9
 10
0.0
 20
0.0
 30
0.0
 70
   128
 71
    46
 72
    34
 73
    33
  0
VERTEX
  5
982
  8
0
 62
     9
 10
0.0
 20
0.0
 30
0.0
 70
   128
 71
    33
 72
    45
 73
    46
  0
VERTEX
  5
983
  8
0
 62
     9
 10
0.0
 20
0.0
 30
0.0
 70
   128
 71
    34
 72
    47
 73
    37
  0
VERTEX
  5
984
  8
0
 62
     9
 10
0.0
 20
0.0
 30
0.0
 70
   128
 71
    47
 72
    34
 73
    46
  0
VERTEX
  5
985
  8
0
 62
     9
 10
0.0
 20
0.0
 30
0.0
 70
   128
 71
    39
 72
    37
 73
    48
  0
VERTEX
  5
986
  8
0
 62
     9
 10
0.0
 20
0.0
 30
0.0
 70
   128
 71
    47
 72
    48
 73
    37
  0
VERTEX
  5
987
  8
0
 62
     9
 10
0.0
 20
0.0
 30
0.0
 70
   128
 71
    39
 72
    48
 73
    49
  0
VERTEX
  5
988
  8
0
 62
     9
 10
0.0
 20
0.0
 30
0.0
 70
   128
 71
    41
 72
    39
 73
    49
  0
VERTEX
  5
989
  8
0
 62
     9
 10
0.0
 20
0.0
 30
0.0
 70
   128
 71
    27
 72
    50
 73
    42
  0
VERTEX
  5
98A
  8
0
 62
     9
 10
0.0
 20
0.0
 30
0.0
 70
   128
 71
    51
 72
    50
 73
    25
  0
VERTEX
  5
98B
  8
0
 62
     9
 10
0.0
 20
0.0
 30
0.0
 70
   128
 71
    27
 72
    25
 73
    50
  0
VERTEX
  5
98C
  8
0
 62
     9
 10
0.0
 20
0.0
 30
0.0
 70
   128
 71
     5
 72
    51
 73
    22
  0
VERTEX
  5
98D
  8
0
 62
     9
 10
0.0
 20
0.0
 30
0.0
 70
   128
 71
    51
 72
    25
 73
    22
  0
VERTEX
  5
98E
  8
0
 62
     9
 10
0.0
 20
0.0
 30
0.0
 70
   128
 71
     5
 72
     1
 73
    52
  0
VERTEX
  5
98F
  8
0
 62
     9
 10
0.0
 20
0.0
 30
0.0
 70
   128
 71
    52
 72
    51
 73
     5
  0
VERTEX
  5
990
  8
0
 62
     9
 10
0.0
 20
0.0
 30
0.0
 70
   128
 71
    53
 72
     1
 73
     2
  0
VERTEX
  5
991
  8
0
 62
     9
 10
0.0
 20
0.0
 30
0.0
 70
   128
 71
     1
 72
    53
 73
    52
  0
VERTEX
  5
992
  8
0
 62
     9
 10
0.0
 20
0.0
 30
0.0
 70
   128
 71
     7
 72
    54
 73
     2
  0
VERTEX
  5
993
  8
0
 62
     9
 10
0.0
 20
0.0
 30
0.0
 70
   128
 71
    53
 72
     2
 73
    54
  0
VERTEX
  5
994
  8
0
 62
     9
 10
0.0
 20
0.0
 30
0.0
 70
   128
 71
     7
 72
    12
 73
    55
  0
VERTEX
  5
995
  8
0
 62
     9
 10
0.0
 20
0.0
 30
0.0
 70
   128
 71
    55
 72
    54
 73
     7
  0
VERTEX
  5
996
  8
0
 62
     9
 10
0.0
 20
0.0
 30
0.0
 70
   128
 71
    12
 72
    43
 73
    55
  0
VERTEX
  5
997
  8
0
 62
     9
 10
0.0
 20
0.0
 30
0.0
 70
   128
 71
    57
 72
    56
 73
    14
  0
VERTEX
  5
998
  8
0
 62
     9
 10
0.0
 20
0.0
 30
0.0
 70
   128
 71
    13
 72
    58
 73
    10
  0
VERTEX
  5
999
  8
0
 62
     9
 10
0.0
 20
0.0
 30
0.0
 70
   128
 71
    60
 72
    59
 73
    19
  0
VERTEX
  5
99A
  8
0
 62
     9
 10
0.0
 20
0.0
 30
0.0
 70
   128
 71
    57
 72
    16
 73
    59
  0
VERTEX
  5
99B
  8
0
 62
     9
 10
0.0
 20
0.0
 30
0.0
 70
   128
 71
    60
 72
    19
 73
    21
  0
VERTEX
  5
99C
  8
0
 62
     9
 10
0.0
 20
0.0
 30
0.0
 70
   128
 71
    16
 72
    57
 73
    14
  0
VERTEX
  5
99D
  8
0
 62
     9
 10
0.0
 20
0.0
 30
0.0
 70
   128
 71
    59
 72
    16
 73
    19
  0
VERTEX
  5
99E
  8
0
 62
     9
 10
0.0
 20
0.0
 30
0.0
 70
   128
 71
    43
 72
    10
 73
    58
  0
VERTEX
  5
99F
  8
0
 62
     9
 10
0.0
 20
0.0
 30
0.0
 70
   128
 71
    56
 72
    13
 73
    14
  0
VERTEX
  5
9A0
  8
0
 62
     9
 10
0.0
 20
0.0
 30
0.0
 70
   128
 71
    56
 72
    58
 73
    13
  0
VERTEX
  5
9A1
  8
0
 62
     9
 10
0.0
 20
0.0
 30
0.0
 70
   128
 71
    62
 72
    61
 73
    15
  0
VERTEX
  5
9A2
  8
0
 62
     9
 10
0.0
 20
0.0
 30
0.0
 70
   128
 71
     8
 72
    63
 73
     9
  0
VERTEX
  5
9A3
  8
0
 62
     9
 10
0.0
 20
0.0
 30
0.0
 70
   128
 71
    20
 72
    65
 73
    64
  0
VERTEX
  5
9A4
  8
0
 62
     9
 10
0.0
 20
0.0
 30
0.0
 70
   128
 71
    61
 72
    18
 73
    17
  0
VERTEX
  5
9A5
  8
0
 62
     9
 10
0.0
 20
0.0
 30
0.0
 70
   128
 71
    68
 72
    67
 73
    66
  0
VERTEX
  5
9A6
  8
0
 62
     9
 10
0.0
 20
0.0
 30
0.0
 70
   128
 71
    69
 72
    68
 73
    66
  0
VERTEX
  5
9A7
  8
0
 62
     9
 10
0.0
 20
0.0
 30
0.0
 70
   128
 71
    67
 72
    70
 73
    66
  0
VERTEX
  5
9A8
  8
0
 62
     9
 10
0.0
 20
0.0
 30
0.0
 70
   128
 71
    71
 72
    66
 73
    70
  0
VERTEX
  5
9A9
  8
0
 62
     9
 10
0.0
 20
0.0
 30
0.0
 70
   128
 71
    69
 72
    72
 73
    68
  0
VERTEX
  5
9AA
  8
0
 62
     9
 10
0.0
 20
0.0
 30
0.0
 70
   128
 71
    67
 72
    73
 73
    70
  0
VERTEX
  5
9AB
  8
0
 62
     9
 10
0.0
 20
0.0
 30
0.0
 70
   128
 71
    74
 72
    67
 73
    68
  0
VERTEX
  5
9AC
  8
0
 62
     9
 10
0.0
 20
0.0
 30
0.0
 70
   128
 71
    64
 72
    70
 73
    20
  0
VERTEX
  5
9AD
  8
0
 62
     9
 10
0.0
 20
0.0
 30
0.0
 70
   128
 71
    73
 72
    20
 73
    70
  0
VERTEX
  5
9AE
  8
0
 62
     9
 10
0.0
 20
0.0
 30
0.0
 70
   128
 71
    18
 72
    61
 73
    65
  0
VERTEX
  5
9AF
  8
0
 62
     9
 10
0.0
 20
0.0
 30
0.0
 70
   128
 71
    20
 72
    18
 73
    65
  0
VERTEX
  5
9B0
  8
0
 62
     9
 10
0.0
 20
0.0
 30
0.0
 70
   128
 71
    17
 72
    15
 73
    61
  0
VERTEX
  5
9B1
  8
0
 62
     9
 10
0.0
 20
0.0
 30
0.0
 70
   128
 71
    75
 72
    15
 73
    11
  0
VERTEX
  5
9B2
  8
0
 62
     9
 10
0.0
 20
0.0
 30
0.0
 70
   128
 71
    75
 72
    62
 73
    15
  0
VERTEX
  5
9B3
  8
0
 62
     9
 10
0.0
 20
0.0
 30
0.0
 70
   128
 71
    75
 72
    11
 73
    76
  0
VERTEX
  5
9B4
  8
0
 62
     9
 10
0.0
 20
0.0
 30
0.0
 70
   128
 71
     9
 72
    63
 73
    76
  0
VERTEX
  5
9B5
  8
0
 62
     9
 10
0.0
 20
0.0
 30
0.0
 70
   128
 71
    76
 72
    11
 73
     9
  0
VERTEX
  5
9B6
  8
0
 62
     9
 10
0.0
 20
0.0
 30
0.0
 70
   128
 71
    77
 72
    63
 73
     8
  0
VERTEX
  5
9B7
  8
0
 62
     9
 10
0.0
 20
0.0
 30
0.0
 70
   128
 71
    77
 72
     6
 73
    78
  0
VERTEX
  5
9B8
  8
0
 62
     9
 10
0.0
 20
0.0
 30
0.0
 70
   128
 71
     6
 72
    77
 73
     8
  0
VERTEX
  5
9B9
  8
0
 62
     9
 10
0.0
 20
0.0
 30
0.0
 70
   128
 71
    79
 72
    78
 73
     3
  0
VERTEX
  5
9BA
  8
0
 62
     9
 10
0.0
 20
0.0
 30
0.0
 70
   128
 71
     6
 72
     3
 73
    78
  0
VERTEX
  5
9BB
  8
0
 62
     9
 10
0.0
 20
0.0
 30
0.0
 70
   128
 71
     4
 72
    40
 73
    79
  0
VERTEX
  5
9BC
  8
0
 62
     9
 10
0.0
 20
0.0
 30
0.0
 70
   128
 71
    79
 72
     3
 73
     4
  0
VERTEX
  5
9BD
  8
0
 62
     9
 10
0.0
 20
0.0
 30
0.0
 70
   128
 71
    23
 72
    40
 73
     4
  0
VERTEX
  5
9BE
  8
0
 62
     9
 10
0.0
 20
0.0
 30
0.0
 70
   128
 71
    30
 72
    36
 73
    26
  0
VERTEX
  5
9BF
  8
0
 62
     9
 10
0.0
 20
0.0
 30
0.0
 70
   128
 71
    36
 72
    38
 73
    24
  0
VERTEX
  5
9C0
  8
0
 62
     9
 10
0.0
 20
0.0
 30
0.0
 70
   128
 71
    36
 72
    30
 73
    32
  0
VERTEX
  5
9C1
  8
0
 62
     9
 10
0.0
 20
0.0
 30
0.0
 70
   128
 71
    29
 72
    30
 73
    26
  0
VERTEX
  5
9C2
  8
0
 62
     9
 10
0.0
 20
0.0
 30
0.0
 70
   128
 71
    26
 72
    36
 73
    24
  0
VERTEX
  5
9C3
  8
0
 62
     9
 10
0.0
 20
0.0
 30
0.0
 70
   128
 71
    35
 72
    36
 73
    32
  0
VERTEX
  5
9C4
  8
0
 62
     9
 10
0.0
 20
0.0
 30
0.0
 70
   128
 71
    23
 72
    38
 73
    40
  0
VERTEX
  5
9C5
  8
0
 62
     9
 10
0.0
 20
0.0
 30
0.0
 70
   128
 71
    24
 72
    38
 73
    23
  0
VERTEX
  5
9C6
  8
0
 62
     9
 10
0.0
 20
0.0
 30
0.0
 70
   128
 71
    49
 72
    81
 73
    80
  0
VERTEX
  5
9C7
  8
0
 62
     9
 10
0.0
 20
0.0
 30
0.0
 70
   128
 71
    84
 72
    83
 73
    82
  0
VERTEX
  5
9C8
  8
0
 62
     9
 10
0.0
 20
0.0
 30
0.0
 70
   128
 71
    87
 72
    86
 73
    85
  0
VERTEX
  5
9C9
  8
0
 62
     9
 10
0.0
 20
0.0
 30
0.0
 70
   128
 71
    90
 72
    89
 73
    88
  0
VERTEX
  5
9CA
  8
0
 62
     9
 10
0.0
 20
0.0
 30
0.0
 70
   128
 71
    93
 72
    92
 73
    91
  0
VERTEX
  5
9CB
  8
0
 62
     9
 10
0.0
 20
0.0
 30
0.0
 70
   128
 71
    96
 72
    95
 73
    94
  0
VERTEX
  5
9CC
  8
0
 62
     9
 10
0.0
 20
0.0
 30
0.0
 70
   128
 71
    99
 72
    98
 73
    97
  0
VERTEX
  5
9CD
  8
0
 62
     9
 10
0.0
 20
0.0
 30
0.0
 70
   128
 71
   102
 72
   101
 73
   100
  0
VERTEX
  5
9CE
  8
0
 62
     9
 10
0.0
 20
0.0
 30
0.0
 70
   128
 71
   104
 72
   102
 73
   103
  0
VERTEX
  5
9CF
  8
0
 62
     9
 10
0.0
 20
0.0
 30
0.0
 70
   128
 71
   107
 72
   106
 73
   105
  0
VERTEX
  5
9D0
  8
0
 62
     9
 10
0.0
 20
0.0
 30
0.0
 70
   128
 71
   106
 72
   107
 73
   100
  0
VERTEX
  5
9D1
  8
0
 62
     9
 10
0.0
 20
0.0
 30
0.0
 70
   128
 71
   109
 72
   108
 73
   105
  0
VERTEX
  5
9D2
  8
0
 62
     9
 10
0.0
 20
0.0
 30
0.0
 70
   128
 71
   107
 72
   105
 73
   108
  0
VERTEX
  5
9D3
  8
0
 62
     9
 10
0.0
 20
0.0
 30
0.0
 70
   128
 71
   109
 72
   111
 73
   110
  0
VERTEX
  5
9D4
  8
0
 62
     9
 10
0.0
 20
0.0
 30
0.0
 70
   128
 71
   110
 72
   108
 73
   109
  0
VERTEX
  5
9D5
  8
0
 62
     9
 10
0.0
 20
0.0
 30
0.0
 70
   128
 71
   112
 72
   111
 73
    60
  0
VERTEX
  5
9D6
  8
0
 62
     9
 10
0.0
 20
0.0
 30
0.0
 70
   128
 71
   111
 72
   112
 73
   110
  0
VERTEX
  5
9D7
  8
0
 62
     9
 10
0.0
 20
0.0
 30
0.0
 70
   128
 71
   112
 72
    60
 73
    21
  0
VERTEX
  5
9D8
  8
0
 62
     9
 10
0.0
 20
0.0
 30
0.0
 70
   128
 71
   101
 72
   102
 73
   104
  0
VERTEX
  5
9D9
  8
0
 62
     9
 10
0.0
 20
0.0
 30
0.0
 70
   128
 71
   101
 72
   106
 73
   100
  0
VERTEX
  5
9DA
  8
0
 62
     9
 10
0.0
 20
0.0
 30
0.0
 70
   128
 71
    96
 72
    94
 73
   103
  0
VERTEX
  5
9DB
  8
0
 62
     9
 10
0.0
 20
0.0
 30
0.0
 70
   128
 71
    94
 72
   104
 73
   103
  0
VERTEX
  5
9DC
  8
0
 62
     9
 10
0.0
 20
0.0
 30
0.0
 70
   128
 71
    97
 72
    98
 73
    95
  0
VERTEX
  5
9DD
  8
0
 62
     9
 10
0.0
 20
0.0
 30
0.0
 70
   128
 71
    97
 72
    95
 73
    96
  0
VERTEX
  5
9DE
  8
0
 62
     9
 10
0.0
 20
0.0
 30
0.0
 70
   128
 71
    90
 72
    88
 73
    98
  0
VERTEX
  5
9DF
  8
0
 62
     9
 10
0.0
 20
0.0
 30
0.0
 70
   128
 71
    90
 72
    98
 73
    99
  0
VERTEX
  5
9E0
  8
0
 62
     9
 10
0.0
 20
0.0
 30
0.0
 70
   128
 71
    89
 72
    93
 73
   113
  0
VERTEX
  5
9E1
  8
0
 62
     9
 10
0.0
 20
0.0
 30
0.0
 70
   128
 71
    89
 72
   113
 73
    88
  0
VERTEX
  5
9E2
  8
0
 62
     9
 10
0.0
 20
0.0
 30
0.0
 70
   128
 71
    91
 72
    92
 73
   114
  0
VERTEX
  5
9E3
  8
0
 62
     9
 10
0.0
 20
0.0
 30
0.0
 70
   128
 71
   113
 72
    93
 73
    91
  0
VERTEX
  5
9E4
  8
0
 62
     9
 10
0.0
 20
0.0
 30
0.0
 70
   128
 71
    82
 72
    83
 73
   114
  0
VERTEX
  5
9E5
  8
0
 62
     9
 10
0.0
 20
0.0
 30
0.0
 70
   128
 71
   114
 72
    92
 73
    82
  0
VERTEX
  5
9E6
  8
0
 62
     9
 10
0.0
 20
0.0
 30
0.0
 70
   128
 71
    87
 72
   115
 73
    84
  0
VERTEX
  5
9E7
  8
0
 62
     9
 10
0.0
 20
0.0
 30
0.0
 70
   128
 71
   115
 72
    83
 73
    84
  0
VERTEX
  5
9E8
  8
0
 62
     9
 10
0.0
 20
0.0
 30
0.0
 70
   128
 71
    86
 72
    81
 73
    85
  0
VERTEX
  5
9E9
  8
0
 62
     9
 10
0.0
 20
0.0
 30
0.0
 70
   128
 71
    87
 72
    85
 73
   115
  0
VERTEX
  5
9EA
  8
0
 62
     9
 10
0.0
 20
0.0
 30
0.0
 70
   128
 71
    80
 72
    41
 73
    49
  0
VERTEX
  5
9EB
  8
0
 62
     9
 10
0.0
 20
0.0
 30
0.0
 70
   128
 71
    86
 72
    80
 73
    81
  0
VERTEX
  5
9EC
  8
0
 62
     9
 10
0.0
 20
0.0
 30
0.0
 70
   128
 71
    20
 72
    73
 73
   112
  0
VERTEX
  5
9ED
  8
0
 62
     9
 10
0.0
 20
0.0
 30
0.0
 70
   128
 71
   108
 72
   110
 73
    67
  0
VERTEX
  5
9EE
  8
0
 62
     9
 10
0.0
 20
0.0
 30
0.0
 70
   128
 71
    69
 72
   102
 73
    72
  0
VERTEX
  5
9EF
  8
0
 62
     9
 10
0.0
 20
0.0
 30
0.0
 70
   128
 71
   107
 72
    74
 73
    68
  0
VERTEX
  5
9F0
  8
0
 62
     9
 10
0.0
 20
0.0
 30
0.0
 70
   128
 71
    97
 72
    70
 73
    99
  0
VERTEX
  5
9F1
  8
0
 62
     9
 10
0.0
 20
0.0
 30
0.0
 70
   128
 71
    66
 72
    71
 73
    96
  0
VERTEX
  5
9F2
  8
0
 62
     9
 10
0.0
 20
0.0
 30
0.0
 70
   128
 71
    65
 72
    61
 73
    89
  0
VERTEX
  5
9F3
  8
0
 62
     9
 10
0.0
 20
0.0
 30
0.0
 70
   128
 71
    65
 72
    90
 73
    64
  0
VERTEX
  5
9F4
  8
0
 62
     9
 10
0.0
 20
0.0
 30
0.0
 70
   128
 71
    75
 72
    82
 73
    92
  0
VERTEX
  5
9F5
  8
0
 62
     9
 10
0.0
 20
0.0
 30
0.0
 70
   128
 71
    92
 72
    93
 73
    62
  0
VERTEX
  5
9F6
  8
0
 62
     9
 10
0.0
 20
0.0
 30
0.0
 70
   128
 71
    76
 72
    63
 73
    84
  0
VERTEX
  5
9F7
  8
0
 62
     9
 10
0.0
 20
0.0
 30
0.0
 70
   128
 71
    84
 72
    82
 73
    76
  0
VERTEX
  5
9F8
  8
0
 62
     9
 10
0.0
 20
0.0
 30
0.0
 70
   128
 71
    87
 72
    63
 73
    77
  0
VERTEX
  5
9F9
  8
0
 62
     9
 10
0.0
 20
0.0
 30
0.0
 70
   128
 71
    63
 72
    87
 73
    84
  0
VERTEX
  5
9FA
  8
0
 62
     9
 10
0.0
 20
0.0
 30
0.0
 70
   128
 71
    78
 72
    86
 73
    77
  0
VERTEX
  5
9FB
  8
0
 62
     9
 10
0.0
 20
0.0
 30
0.0
 70
   128
 71
    87
 72
    77
 73
    86
  0
VERTEX
  5
9FC
  8
0
 62
     9
 10
0.0
 20
0.0
 30
0.0
 70
   128
 71
    78
 72
    79
 73
    80
  0
VERTEX
  5
9FD
  8
0
 62
     9
 10
0.0
 20
0.0
 30
0.0
 70
   128
 71
    80
 72
    86
 73
    78
  0
VERTEX
  5
9FE
  8
0
 62
     9
 10
0.0
 20
0.0
 30
0.0
 70
   128
 71
    41
 72
    79
 73
    40
  0
VERTEX
  5
9FF
  8
0
 62
     9
 10
0.0
 20
0.0
 30
0.0
 70
   128
 71
    79
 72
    41
 73
    80
  0
VERTEX
  5
A00
  8
0
 62
     9
 10
0.0
 20
0.0
 30
0.0
 70
   128
 71
    75
 72
    76
 73
    82
  0
VERTEX
  5
A01
  8
0
 62
     9
 10
0.0
 20
0.0
 30
0.0
 70
   128
 71
    92
 72
    62
 73
    75
  0
VERTEX
  5
A02
  8
0
 62
     9
 10
0.0
 20
0.0
 30
0.0
 70
   128
 71
    93
 72
    89
 73
    61
  0
VERTEX
  5
A03
  8
0
 62
     9
 10
0.0
 20
0.0
 30
0.0
 70
   128
 71
    61
 72
    62
 73
    93
  0
VERTEX
  5
A04
  8
0
 62
     9
 10
0.0
 20
0.0
 30
0.0
 70
   128
 71
    65
 72
    89
 73
    90
  0
VERTEX
  5
A05
  8
0
 62
     9
 10
0.0
 20
0.0
 30
0.0
 70
   128
 71
   102
 72
    69
 73
   103
  0
VERTEX
  5
A06
  8
0
 62
     9
 10
0.0
 20
0.0
 30
0.0
 70
   128
 71
    99
 72
    70
 73
    64
  0
VERTEX
  5
A07
  8
0
 62
     9
 10
0.0
 20
0.0
 30
0.0
 70
   128
 71
    99
 72
    64
 73
    90
  0
VERTEX
  5
A08
  8
0
 62
     9
 10
0.0
 20
0.0
 30
0.0
 70
   128
 71
    97
 72
    96
 73
    71
  0
VERTEX
  5
A09
  8
0
 62
     9
 10
0.0
 20
0.0
 30
0.0
 70
   128
 71
    97
 72
    71
 73
    70
  0
VERTEX
  5
A0A
  8
0
 62
     9
 10
0.0
 20
0.0
 30
0.0
 70
   128
 71
    66
 72
   103
 73
    69
  0
VERTEX
  5
A0B
  8
0
 62
     9
 10
0.0
 20
0.0
 30
0.0
 70
   128
 71
    96
 72
   103
 73
    66
  0
VERTEX
  5
A0C
  8
0
 62
     9
 10
0.0
 20
0.0
 30
0.0
 70
   128
 71
    68
 72
   100
 73
   107
  0
VERTEX
  5
A0D
  8
0
 62
     9
 10
0.0
 20
0.0
 30
0.0
 70
   128
 71
   102
 72
   100
 73
    72
  0
VERTEX
  5
A0E
  8
0
 62
     9
 10
0.0
 20
0.0
 30
0.0
 70
   128
 71
    68
 72
    72
 73
   100
  0
VERTEX
  5
A0F
  8
0
 62
     9
 10
0.0
 20
0.0
 30
0.0
 70
   128
 71
    74
 72
   107
 73
   108
  0
VERTEX
  5
A10
  8
0
 62
     9
 10
0.0
 20
0.0
 30
0.0
 70
   128
 71
    73
 72
    67
 73
   110
  0
VERTEX
  5
A11
  8
0
 62
     9
 10
0.0
 20
0.0
 30
0.0
 70
   128
 71
   108
 72
    67
 73
    74
  0
VERTEX
  5
A12
  8
0
 62
     9
 10
0.0
 20
0.0
 30
0.0
 70
   128
 71
   110
 72
   112
 73
    73
  0
VERTEX
  5
A13
  8
0
 62
     9
 10
0.0
 20
0.0
 30
0.0
 70
   128
 71
   112
 72
    21
 73
    20
  0
VERTEX
  5
A14
  8
0
 62
     9
 10
0.0
 20
0.0
 30
0.0
 70
   128
 71
   118
 72
   117
 73
   116
  0
VERTEX
  5
A15
  8
0
 62
     9
 10
0.0
 20
0.0
 30
0.0
 70
   128
 71
   121
 72
   120
 73
   119
  0
VERTEX
  5
A16
  8
0
 62
     9
 10
0.0
 20
0.0
 30
0.0
 70
   128
 71
   118
 72
   123
 73
   122
  0
VERTEX
  5
A17
  8
0
 62
     9
 10
0.0
 20
0.0
 30
0.0
 70
   128
 71
   126
 72
   125
 73
   124
  0
VERTEX
  5
A18
  8
0
 62
     9
 10
0.0
 20
0.0
 30
0.0
 70
   128
 71
   120
 72
   121
 73
   116
  0
VERTEX
  5
A19
  8
0
 62
     9
 10
0.0
 20
0.0
 30
0.0
 70
   128
 71
   129
 72
   128
 73
   127
  0
VERTEX
  5
A1A
  8
0
 62
     9
 10
0.0
 20
0.0
 30
0.0
 70
   128
 71
   130
 72
   127
 73
   128
  0
VERTEX
  5
A1B
  8
0
 62
     9
 10
0.0
 20
0.0
 30
0.0
 70
   128
 71
   129
 72
   131
 73
   128
  0
VERTEX
  5
A1C
  8
0
 62
     9
 10
0.0
 20
0.0
 30
0.0
 70
   128
 71
   133
 72
   132
 73
   119
  0
VERTEX
  5
A1D
  8
0
 62
     9
 10
0.0
 20
0.0
 30
0.0
 70
   128
 71
   134
 72
   125
 73
   126
  0
VERTEX
  5
A1E
  8
0
 62
     9
 10
0.0
 20
0.0
 30
0.0
 70
   128
 71
   130
 72
   133
 73
   127
  0
VERTEX
  5
A1F
  8
0
 62
     9
 10
0.0
 20
0.0
 30
0.0
 70
   128
 71
   137
 72
   136
 73
   135
  0
VERTEX
  5
A20
  8
0
 62
     9
 10
0.0
 20
0.0
 30
0.0
 70
   128
 71
   135
 72
   136
 73
   134
  0
VERTEX
  5
A21
  8
0
 62
     9
 10
0.0
 20
0.0
 30
0.0
 70
   128
 71
   130
 72
   132
 73
   133
  0
VERTEX
  5
A22
  8
0
 62
     9
 10
0.0
 20
0.0
 30
0.0
 70
   128
 71
   132
 72
   121
 73
   119
  0
VERTEX
  5
A23
  8
0
 62
     9
 10
0.0
 20
0.0
 30
0.0
 70
   128
 71
   116
 72
   117
 73
   120
  0
VERTEX
  5
A24
  8
0
 62
     9
 10
0.0
 20
0.0
 30
0.0
 70
   128
 71
   123
 72
   118
 73
   116
  0
VERTEX
  5
A25
  8
0
 62
     9
 10
0.0
 20
0.0
 30
0.0
 70
   128
 71
   138
 72
   122
 73
   123
  0
VERTEX
  5
A26
  8
0
 62
     9
 10
0.0
 20
0.0
 30
0.0
 70
   128
 71
   138
 72
   126
 73
   124
  0
VERTEX
  5
A27
  8
0
 62
     9
 10
0.0
 20
0.0
 30
0.0
 70
   128
 71
   138
 72
   124
 73
   122
  0
VERTEX
  5
A28
  8
0
 62
     9
 10
0.0
 20
0.0
 30
0.0
 70
   128
 71
   126
 72
   135
 73
   134
  0
VERTEX
  5
A29
  8
0
 62
     9
 10
0.0
 20
0.0
 30
0.0
 70
   128
 71
   137
 72
   131
 73
   136
  0
VERTEX
  5
A2A
  8
0
 62
     9
 10
0.0
 20
0.0
 30
0.0
 70
   128
 71
   131
 72
   137
 73
   128
  0
SEQEND
  5
A2B
  8
0
 62
     9
  0
ENDBLK
  5
A2E
  8
0
  0
BLOCK
  8
0
  2
111012_ALLURE_D4A_CONCEPTS
 70
     0
 10
0.0
 20
0.0
 30
0.0
  3
111012_ALLURE_D4A_CONCEPTS
  1

  0
POLYLINE
  5
A30
  8
0
 66
     1
 10
0.0
 20
0.0
 30
0.0
 70
    64
 71
   190
 72
   374
  0
VERTEX
  5
A31
  8
0
 10
94.99998474121094
 20
-0.1931282579898834
 30
65.60840606689453
 70
   192
  0
VERTEX
  5
A32
  8
0
 10
94.99998474121094
 20
4.993110656738281
 30
66.57482147216797
 70
   192
  0
VERTEX
  5
A33
  8
0
 10
94.52893829345703
 20
0.0000219390040002
 30
65.21343231201172
 70
   192
  0
VERTEX
  5
A34
  8
0
 10
94.99998474121094
 20
10.08676910400391
 30
69.78001403808594
 70
   192
  0
VERTEX
  5
A35
  8
0
 10
94.54200744628906
 20
6.035635471343994
 30
66.60315704345703
 70
   192
  0
VERTEX
  5
A36
  8
0
 10
94.56905364990234
 20
11.05086612701416
 30
70.17342376708984
 70
   192
  0
VERTEX
  5
A37
  8
0
 10
94.61727142333984
 20
15.00001811981201
 30
75.28026580810547
 70
   192
  0
VERTEX
  5
A38
  8
0
 10
94.5411376953125
 20
-5.99671745300293
 30
66.57140350341797
 70
   192
  0
VERTEX
  5
A39
  8
0
 10
94.56854248046875
 20
-11.05920600891113
 30
70.12955474853516
 70
   192
  0
VERTEX
  5
A3A
  8
0
 10
94.99998474121094
 20
-5.369152069091797
 30
66.72909545898438
 70
   192
  0
VERTEX
  5
A3B
  8
0
 10
94.99998474121094
 20
-14.58473110198975
 30
75.22745513916016
 70
   192
  0
VERTEX
  5
A3C
  8
0
 10
94.99998474121094
 20
-10.25900745391846
 30
69.93563842773438
 70
   192
  0
VERTEX
  5
A3D
  8
0
 10
8.701457023620605
 20
14.50001811981201
 30
58.22027206420898
 70
   192
  0
VERTEX
  5
A3E
  8
0
 10
12.17114162445068
 20
-14.49998188018799
 30
65.02349090576172
 70
   192
  0
VERTEX
  5
A3F
  8
0
 10
12.17991828918457
 20
14.50001811981201
 30
65.03730773925781
 70
   192
  0
VERTEX
  5
A40
  8
0
 10
17.6004695892334
 20
-14.49998188018799
 30
70.45787048339844
 70
   192
  0
VERTEX
  5
A41
  8
0
 10
8.695820808410645
 20
-14.49998188018799
 30
58.20856094360352
 70
   192
  0
VERTEX
  5
A42
  8
0
 10
7.499981880187988
 20
14.50001811981201
 30
50.63780975341797
 70
   192
  0
VERTEX
  5
A43
  8
0
 10
7.499981880187988
 20
-14.49998188018799
 30
50.63779830932617
 70
   192
  0
VERTEX
  5
A44
  8
0
 10
24.41752815246582
 20
-14.49998188018799
 30
73.93631744384766
 70
   192
  0
VERTEX
  5
A45
  8
0
 10
17.61428070068359
 20
14.50001811981201
 30
70.4666519165039
 70
   192
  0
VERTEX
  5
A46
  8
0
 10
24.42925643920898
 20
14.50001811981201
 30
73.94195556640625
 70
   192
  0
VERTEX
  5
A47
  8
0
 10
31.99998092651367
 20
2.630939722061157
 30
75.13780212402344
 70
   192
  0
VERTEX
  5
A48
  8
0
 10
31.99998092651367
 20
8.054232597351074
 30
75.13780212402344
 70
   192
  0
VERTEX
  5
A49
  8
0
 10
31.99998092651367
 20
-2.469460248947144
 30
75.13780212402344
 70
   192
  0
VERTEX
  5
A4A
  8
0
 10
31.99998092651367
 20
14.50001811981201
 30
75.13780212402344
 70
   192
  0
VERTEX
  5
A4B
  8
0
 10
31.99998092651367
 20
-8.054198265075684
 30
75.13780212402344
 70
   192
  0
VERTEX
  5
A4C
  8
0
 10
31.99998092651367
 20
-14.49998188018799
 30
75.13780212402344
 70
   192
  0
VERTEX
  5
A4D
  8
0
 10
7.500064849853516
 20
14.50001811981201
 30
34.54268264770508
 70
   192
  0
VERTEX
  5
A4E
  8
0
 10
7.500064849853516
 20
14.50001811981201
 30
26.49512100219727
 70
   192
  0
VERTEX
  5
A4F
  8
0
 10
7.500060081481934
 20
-14.49998188018799
 30
26.49512100219727
 70
   192
  0
VERTEX
  5
A50
  8
0
 10
7.500064849853516
 20
14.50001811981201
 30
18.44756126403809
 70
   192
  0
VERTEX
  5
A51
  8
0
 10
7.500060081481934
 20
-14.49998188018799
 30
18.44756126403809
 70
   192
  0
VERTEX
  5
A52
  8
0
 10
6.999981880187988
 20
-14.99979496002197
 30
10.39999961853027
 70
   192
  0
VERTEX
  5
A53
  8
0
 10
7.500060081481934
 20
14.50001811981201
 30
10.39999961853027
 70
   192
  0
VERTEX
  5
A54
  8
0
 10
7.500060081481934
 20
-14.49998188018799
 30
34.54268264770508
 70
   192
  0
VERTEX
  5
A55
  8
0
 10
7.500060081481934
 20
-14.49998188018799
 30
42.59024429321289
 70
   192
  0
VERTEX
  5
A56
  8
0
 10
7.500064849853516
 20
14.50001811981201
 30
42.59024429321289
 70
   192
  0
VERTEX
  5
A57
  8
0
 10
52.99161911010742
 20
8.679299354553223
 30
74.01168060302734
 70
   192
  0
VERTEX
  5
A58
  8
0
 10
39.2249755859375
 20
14.54685115814209
 30
75.0945053100586
 70
   192
  0
VERTEX
  5
A59
  8
0
 10
52.99161911010742
 20
-8.679264068603516
 30
74.01168060302734
 70
   192
  0
VERTEX
  5
A5A
  8
0
 10
56.11429214477539
 20
-14.65834808349609
 30
75.0214614868164
 70
   192
  0
VERTEX
  5
A5B
  8
0
 10
63.98184204101562
 20
-14.71133041381836
 30
75.00149536132812
 70
   192
  0
VERTEX
  5
A5C
  8
0
 10
46.38258743286133
 20
14.59376049041748
 30
75.05863952636719
 70
   192
  0
VERTEX
  5
A5D
  8
0
 10
53.47282409667969
 20
14.64074611663818
 30
75.03020477294922
 70
   192
  0
VERTEX
  5
A5E
  8
0
 10
67.45116424560547
 20
14.73494625091553
 30
74.99564361572266
 70
   192
  0
VERTEX
  5
A5F
  8
0
 10
60.49568176269531
 20
14.6878080368042
 30
75.00920867919922
 70
   192
  0
VERTEX
  5
A60
  8
0
 10
73.9832534790039
 20
9.105644226074219
 30
71.46269989013672
 70
   192
  0
VERTEX
  5
A61
  8
0
 10
81.15998077392578
 20
14.82945156097412
 30
74.99081420898438
 70
   192
  0
VERTEX
  5
A62
  8
0
 10
73.9832534790039
 20
3.052830696105957
 30
69.6251449584961
 70
   192
  0
VERTEX
  5
A63
  8
0
 10
87.913330078125
 20
14.87681865692139
 30
74.99954986572266
 70
   192
  0
VERTEX
  5
A64
  8
0
 10
52.99161911010742
 20
2.83965802192688
 30
73.44861602783203
 70
   192
  0
VERTEX
  5
A65
  8
0
 10
74.33926391601562
 20
14.78216075897217
 30
74.98951721191406
 70
   192
  0
VERTEX
  5
A66
  8
0
 10
73.9832534790039
 20
-3.05279541015625
 30
69.6251449584961
 70
   192
  0
VERTEX
  5
A67
  8
0
 10
73.9832534790039
 20
-9.105607986450195
 30
71.46269989013672
 70
   192
  0
VERTEX
  5
A68
  8
0
 10
71.76412200927734
 20
-14.7644100189209
 30
74.9909439086914
 70
   192
  0
VERTEX
  5
A69
  8
0
 10
79.46112060546875
 20
-14.81758499145508
 30
74.98979187011719
 70
   192
  0
VERTEX
  5
A6A
  8
0
 10
87.07284545898438
 20
-14.87085723876953
 30
74.998046875
 70
   192
  0
VERTEX
  5
A6B
  8
0
 10
40.12335968017578
 20
-14.55267429351807
 30
75.08961486816406
 70
   192
  0
VERTEX
  5
A6C
  8
0
 10
48.16146469116211
 20
-14.6054630279541
 30
75.05083465576172
 70
   192
  0
VERTEX
  5
A6D
  8
0
 10
52.99161911010742
 20
-2.839623689651489
 30
73.44861602783203
 70
   192
  0
VERTEX
  5
A6E
  8
0
 10
46.38499450683594
 20
15.00001811981201
 30
75.55545806884766
 70
   192
  0
VERTEX
  5
A6F
  8
0
 10
31.99998092651367
 20
15.00001811981201
 30
75.63780212402344
 70
   192
  0
VERTEX
  5
A70
  8
0
 10
39.22633743286133
 20
15.00001811981201
 30
75.59642028808594
 70
   192
  0
VERTEX
  5
A71
  8
0
 10
67.45476531982422
 20
15.00001811981201
 30
75.43505859375
 70
   192
  0
VERTEX
  5
A72
  8
0
 10
60.49920654296875
 20
15.00001811981201
 30
75.47477722167969
 70
   192
  0
VERTEX
  5
A73
  8
0
 10
53.4759521484375
 20
15.00001811981201
 30
75.5149154663086
 70
   192
  0
VERTEX
  5
A74
  8
0
 10
81.16277313232422
 20
15.00001811981201
 30
75.35686492919922
 70
   192
  0
VERTEX
  5
A75
  8
0
 10
74.34262084960938
 20
15.00001811981201
 30
75.395751953125
 70
   192
  0
VERTEX
  5
A76
  8
0
 10
87.91522979736328
 20
15.00001811981201
 30
75.3183822631836
 70
   192
  0
VERTEX
  5
A77
  8
0
 10
17.3206958770752
 20
15.00001811981201
 30
70.87132263183594
 70
   192
  0
VERTEX
  5
A78
  8
0
 10
11.77542686462402
 20
15.00001811981201
 30
65.3311767578125
 70
   192
  0
VERTEX
  5
A79
  8
0
 10
24.27475166320801
 20
15.00001811981201
 30
74.41754913330078
 70
   192
  0
VERTEX
  5
A7A
  8
0
 10
8.225976943969727
 20
15.00001811981201
 30
58.37501525878906
 70
   192
  0
VERTEX
  5
A7B
  8
0
 10
6.999981880187988
 20
15.00001811981201
 30
50.63780975341797
 70
   192
  0
VERTEX
  5
A7C
  8
0
 10
6.999981880187988
 20
15.00001811981201
 30
42.59024810791016
 70
   192
  0
VERTEX
  5
A7D
  8
0
 10
6.999981880187988
 20
15.00001811981201
 30
34.54268646240234
 70
   192
  0
VERTEX
  5
A7E
  8
0
 10
6.999981880187988
 20
15.00001811981201
 30
26.4951229095459
 70
   192
  0
VERTEX
  5
A7F
  8
0
 10
6.999981880187988
 20
15.00001811981201
 30
18.44756126403809
 70
   192
  0
VERTEX
  5
A80
  8
0
 10
-7.000018119812012
 20
15.00001811981201
 30
18.44755935668945
 70
   192
  0
VERTEX
  5
A81
  8
0
 10
-7.000018119812012
 20
15.00001811981201
 30
26.49511909484863
 70
   192
  0
VERTEX
  5
A82
  8
0
 10
-7.500018119812012
 20
14.50001811981201
 30
18.44755935668945
 70
   192
  0
VERTEX
  5
A83
  8
0
 10
-7.500018119812012
 20
14.50001811981201
 30
26.49511909484863
 70
   192
  0
VERTEX
  5
A84
  8
0
 10
-7.000018119812012
 20
15.00001811981201
 30
10.39999961853027
 70
   192
  0
VERTEX
  5
A85
  8
0
 10
-7.000018119812012
 20
15.00001811981201
 30
34.54267883300781
 70
   192
  0
VERTEX
  5
A86
  8
0
 10
-7.000018119812012
 20
15.00001811981201
 30
42.59024047851562
 70
   192
  0
VERTEX
  5
A87
  8
0
 10
-7.500018119812012
 20
14.50001811981201
 30
34.54267883300781
 70
   192
  0
VERTEX
  5
A88
  8
0
 10
-7.000018119812012
 20
15.00001811981201
 30
50.63779830932617
 70
   192
  0
VERTEX
  5
A89
  8
0
 10
-7.500018119812012
 20
14.50001811981201
 30
42.59024047851562
 70
   192
  0
VERTEX
  5
A8A
  8
0
 10
-7.500018119812012
 20
14.50001811981201
 30
50.63779830932617
 70
   192
  0
VERTEX
  5
A8B
  8
0
 10
-7.500018119812012
 20
-14.49998188018799
 30
18.44755935668945
 70
   192
  0
VERTEX
  5
A8C
  8
0
 10
-7.500018119812012
 20
-14.49998188018799
 30
26.49511909484863
 70
   192
  0
VERTEX
  5
A8D
  8
0
 10
-7.000018119812012
 20
-14.99998188018799
 30
18.44755935668945
 70
   192
  0
VERTEX
  5
A8E
  8
0
 10
-7.000018119812012
 20
-14.99998188018799
 30
26.49511909484863
 70
   192
  0
VERTEX
  5
A8F
  8
0
 10
-7.500018119812012
 20
-14.49998188018799
 30
10.39999961853027
 70
   192
  0
VERTEX
  5
A90
  8
0
 10
-7.500018119812012
 20
-14.49998188018799
 30
34.54267883300781
 70
   192
  0
VERTEX
  5
A91
  8
0
 10
-7.500018119812012
 20
-14.49998188018799
 30
42.59024047851562
 70
   192
  0
VERTEX
  5
A92
  8
0
 10
-7.000018119812012
 20
-14.99998188018799
 30
34.54267883300781
 70
   192
  0
VERTEX
  5
A93
  8
0
 10
-7.500018119812012
 20
-14.49998188018799
 30
50.63779830932617
 70
   192
  0
VERTEX
  5
A94
  8
0
 10
-7.000018119812012
 20
-14.99998188018799
 30
42.59024047851562
 70
   192
  0
VERTEX
  5
A95
  8
0
 10
-7.000018119812012
 20
-14.99998188018799
 30
50.63779830932617
 70
   192
  0
VERTEX
  5
A96
  8
0
 10
6.999981880187988
 20
-14.99998188018799
 30
34.54222106933594
 70
   192
  0
VERTEX
  5
A97
  8
0
 10
6.999981880187988
 20
-14.99998188018799
 30
26.49481391906738
 70
   192
  0
VERTEX
  5
A98
  8
0
 10
6.999981880187988
 20
-14.99998188018799
 30
18.44740676879883
 70
   192
  0
VERTEX
  5
A99
  8
0
 10
6.999981880187988
 20
-14.99998188018799
 30
42.58963012695312
 70
   192
  0
VERTEX
  5
A9A
  8
0
 10
6.999981880187988
 20
-14.99979496002197
 30
50.63703536987305
 70
   192
  0
VERTEX
  5
A9B
  8
0
 10
11.76647281646729
 20
-14.99998188018799
 30
65.31707763671875
 70
   192
  0
VERTEX
  5
A9C
  8
0
 10
17.30660438537598
 20
-14.99998188018799
 30
70.86236572265625
 70
   192
  0
VERTEX
  5
A9D
  8
0
 10
8.220227241516113
 20
-14.99998188018799
 30
58.36306762695312
 70
   192
  0
VERTEX
  5
A9E
  8
0
 10
24.26278495788574
 20
-14.99998188018799
 30
74.41179656982422
 70
   192
  0
VERTEX
  5
A9F
  8
0
 10
31.99998092651367
 20
-14.99998188018799
 30
75.63780212402344
 70
   192
  0
VERTEX
  5
AA0
  8
0
 10
63.29998016357422
 20
-14.99998188018799
 30
75.45906066894531
 70
   192
  0
VERTEX
  5
AA1
  8
0
 10
71.12498474121094
 20
-14.99998188018799
 30
75.41437530517578
 70
   192
  0
VERTEX
  5
AA2
  8
0
 10
78.94998168945312
 20
-14.99998188018799
 30
75.36968994140625
 70
   192
  0
VERTEX
  5
AA3
  8
0
 10
86.77497863769531
 20
-14.99998188018799
 30
75.32500457763672
 70
   192
  0
VERTEX
  5
AA4
  8
0
 10
55.47498321533203
 20
-14.99998188018799
 30
75.50374603271484
 70
   192
  0
VERTEX
  5
AA5
  8
0
 10
47.64998245239258
 20
-14.99998188018799
 30
75.54843139648438
 70
   192
  0
VERTEX
  5
AA6
  8
0
 10
39.82498168945312
 20
-14.99998188018799
 30
75.5931167602539
 70
   192
  0
VERTEX
  5
AA7
  8
0
 10
2.026928186416626
 20
15.00001811981201
 30
75.58789825439453
 70
   192
  0
VERTEX
  5
AA8
  8
0
 10
-2.00989842414856
 20
15.00001811981201
 30
69.7337646484375
 70
   192
  0
VERTEX
  5
AA9
  8
0
 10
25.6999568939209
 20
15.00001811981201
 30
89.12996673583984
 70
   192
  0
VERTEX
  5
AAA
  8
0
 10
31.99998092651367
 20
15.00001811981201
 30
89.63780212402344
 70
   192
  0
VERTEX
  5
AAB
  8
0
 10
12.9568920135498
 20
15.00001811981201
 30
84.6571273803711
 70
   192
  0
VERTEX
  5
AAC
  8
0
 10
7.101834774017334
 20
15.00001811981201
 30
80.64498138427734
 70
   192
  0
VERTEX
  5
AAD
  8
0
 10
47.64998245239258
 20
15.00001811981201
 30
89.63780212402344
 70
   192
  0
VERTEX
  5
AAE
  8
0
 10
39.82498168945312
 20
15.00001811981201
 30
89.63780212402344
 70
   192
  0
VERTEX
  5
AAF
  8
0
 10
55.47498321533203
 20
15.00001811981201
 30
89.63780212402344
 70
   192
  0
VERTEX
  5
AB0
  8
0
 10
63.29998016357422
 20
15.00001811981201
 30
89.63780212402344
 70
   192
  0
VERTEX
  5
AB1
  8
0
 10
78.94998168945312
 20
15.00001811981201
 30
89.63780212402344
 70
   192
  0
VERTEX
  5
AB2
  8
0
 10
71.12498474121094
 20
15.00001811981201
 30
89.63780212402344
 70
   192
  0
VERTEX
  5
AB3
  8
0
 10
86.77497863769531
 20
15.00001811981201
 30
89.63780212402344
 70
   192
  0
VERTEX
  5
AB4
  8
0
 10
94.59998321533203
 20
14.99979114532471
 30
82.4475326538086
 70
   192
  0
VERTEX
  5
AB5
  8
0
 10
94.59998321533203
 20
14.49709892272949
 30
90.13778686523438
 70
   192
  0
VERTEX
  5
AB6
  8
0
 10
-4.857950210571289
 20
15.00001811981201
 30
63.40399932861328
 70
   192
  0
VERTEX
  5
AB7
  8
0
 10
19.2714786529541
 20
15.00001811981201
 30
87.48746490478516
 70
   192
  0
VERTEX
  5
AB8
  8
0
 10
-6.492188453674316
 20
15.00001811981201
 30
56.93782424926758
 70
   192
  0
VERTEX
  5
AB9
  8
0
 10
12.71274948120117
 20
14.50001811981201
 30
85.09326934814453
 70
   192
  0
VERTEX
  5
ABA
  8
0
 10
6.782627582550049
 20
14.50001811981201
 30
81.0296859741211
 70
   192
  0
VERTEX
  5
ABB
  8
0
 10
19.1082935333252
 20
14.50001811981201
 30
87.95989227294922
 70
   192
  0
VERTEX
  5
ABC
  8
0
 10
25.61918830871582
 20
14.50001811981201
 30
89.62345886230469
 70
   192
  0
VERTEX
  5
ABD
  8
0
 10
31.99998092651367
 20
14.50001811981201
 30
90.13780212402344
 70
   192
  0
VERTEX
  5
ABE
  8
0
 10
1.642658352851868
 20
14.50001811981201
 30
75.90777587890625
 70
   192
  0
VERTEX
  5
ABF
  8
0
 10
-2.445922613143921
 20
14.50001811981201
 30
69.97858428955078
 70
   192
  0
VERTEX
  5
AC0
  8
0
 10
-5.330487728118896
 20
14.50001811981201
 30
63.56766891479492
 70
   192
  0
VERTEX
  5
AC1
  8
0
 10
-6.985677719116211
 20
14.50001811981201
 30
57.01859283447266
 70
   192
  0
VERTEX
  5
AC2
  8
0
 10
6.939977169036865
 20
-14.99998188018799
 30
80.520263671875
 70
   192
  0
VERTEX
  5
AC3
  8
0
 10
12.65919876098633
 20
-14.49998188018799
 30
85.08370208740234
 70
   192
  0
VERTEX
  5
AC4
  8
0
 10
12.51842308044434
 20
-14.99998188018799
 30
84.4197998046875
 70
   192
  0
VERTEX
  5
AC5
  8
0
 10
2.139049291610718
 20
-14.99998188018799
 30
75.72232818603516
 70
   192
  0
VERTEX
  5
AC6
  8
0
 10
6.730008125305176
 20
-14.49998188018799
 30
80.99512481689453
 70
   192
  0
VERTEX
  5
AC7
  8
0
 10
19.07011222839355
 20
-14.49998188018799
 30
87.96826934814453
 70
   192
  0
VERTEX
  5
AC8
  8
0
 10
18.68015670776367
 20
-14.99998188018799
 30
87.29163360595703
 70
   192
  0
VERTEX
  5
AC9
  8
0
 10
25.61918830871582
 20
-14.49998188018799
 30
89.62345886230469
 70
   192
  0
VERTEX
  5
ACA
  8
0
 10
31.99998092651367
 20
-14.49998188018799
 30
90.13780212402344
 70
   192
  0
VERTEX
  5
ACB
  8
0
 10
25.21542549133301
 20
-14.99998188018799
 30
89.04275512695312
 70
   192
  0
VERTEX
  5
ACC
  8
0
 10
31.99998092651367
 20
-14.99998188018799
 30
89.63780212402344
 70
   192
  0
VERTEX
  5
ACD
  8
0
 10
-1.763354659080505
 20
-14.99998188018799
 30
70.15483093261719
 70
   192
  0
VERTEX
  5
ACE
  8
0
 10
1.608095169067383
 20
-14.49998188018799
 30
75.85515594482422
 70
   192
  0
VERTEX
  5
ACF
  8
0
 10
-2.45548939704895
 20
-14.49998188018799
 30
69.92503356933594
 70
   192
  0
VERTEX
  5
AD0
  8
0
 10
-4.648351192474365
 20
-14.99998188018799
 30
63.97695159912109
 70
   192
  0
VERTEX
  5
AD1
  8
0
 10
-6.404971599578857
 20
-14.99998188018799
 30
57.42235565185547
 70
   192
  0
VERTEX
  5
AD2
  8
0
 10
-5.322113513946533
 20
-14.49998188018799
 30
63.52948760986328
 70
   192
  0
VERTEX
  5
AD3
  8
0
 10
-6.985677719116211
 20
-14.49998188018799
 30
57.01859283447266
 70
   192
  0
VERTEX
  5
AD4
  8
0
 10
39.82498168945312
 20
-14.99998188018799
 30
89.63780212402344
 70
   192
  0
VERTEX
  5
AD5
  8
0
 10
78.94998168945312
 20
-14.99998188018799
 30
89.63780212402344
 70
   192
  0
VERTEX
  5
AD6
  8
0
 10
71.12498474121094
 20
-14.99998188018799
 30
89.63780212402344
 70
   192
  0
VERTEX
  5
AD7
  8
0
 10
86.77497863769531
 20
-14.99998188018799
 30
89.63780212402344
 70
   192
  0
VERTEX
  5
AD8
  8
0
 10
94.59998321533203
 20
-14.99976444244385
 30
82.45384216308594
 70
   192
  0
VERTEX
  5
AD9
  8
0
 10
94.59998321533203
 20
-14.99998188018799
 30
89.63780212402344
 70
   192
  0
VERTEX
  5
ADA
  8
0
 10
63.29998016357422
 20
-14.99998188018799
 30
89.63780212402344
 70
   192
  0
VERTEX
  5
ADB
  8
0
 10
55.47498321533203
 20
-14.99998188018799
 30
89.63780212402344
 70
   192
  0
VERTEX
  5
ADC
  8
0
 10
47.64998245239258
 20
-14.99998188018799
 30
89.63780212402344
 70
   192
  0
VERTEX
  5
ADD
  8
0
 10
39.82498168945312
 20
14.50001811981201
 30
90.13780212402344
 70
   192
  0
VERTEX
  5
ADE
  8
0
 10
63.29998016357422
 20
14.50001811981201
 30
90.13780212402344
 70
   192
  0
VERTEX
  5
ADF
  8
0
 10
55.47498321533203
 20
14.50001811981201
 30
90.13780212402344
 70
   192
  0
VERTEX
  5
AE0
  8
0
 10
47.64998245239258
 20
14.50001811981201
 30
90.13780212402344
 70
   192
  0
VERTEX
  5
AE1
  8
0
 10
78.94998168945312
 20
14.50001811981201
 30
90.13780212402344
 70
   192
  0
VERTEX
  5
AE2
  8
0
 10
71.12498474121094
 20
14.50001811981201
 30
90.13780212402344
 70
   192
  0
VERTEX
  5
AE3
  8
0
 10
86.77497863769531
 20
14.50001811981201
 30
90.13780212402344
 70
   192
  0
VERTEX
  5
AE4
  8
0
 10
63.29998016357422
 20
-14.49998188018799
 30
90.13780212402344
 70
   192
  0
VERTEX
  5
AE5
  8
0
 10
71.12498474121094
 20
-14.49998188018799
 30
90.13780212402344
 70
   192
  0
VERTEX
  5
AE6
  8
0
 10
78.94998168945312
 20
-14.49998188018799
 30
90.13780212402344
 70
   192
  0
VERTEX
  5
AE7
  8
0
 10
86.77497863769531
 20
-14.49998188018799
 30
90.13780212402344
 70
   192
  0
VERTEX
  5
AE8
  8
0
 10
55.47498321533203
 20
-14.49998188018799
 30
90.13780212402344
 70
   192
  0
VERTEX
  5
AE9
  8
0
 10
47.64998245239258
 20
-14.49998188018799
 30
90.13780212402344
 70
   192
  0
VERTEX
  5
AEA
  8
0
 10
39.82498168945312
 20
-14.49998188018799
 30
90.13780212402344
 70
   192
  0
VERTEX
  5
AEB
  8
0
 10
94.59998321533203
 20
8.693800926208496
 30
90.1375503540039
 70
   192
  0
VERTEX
  5
AEC
  8
0
 10
94.59998321533203
 20
2.897947072982788
 30
90.1375503540039
 70
   192
  0
VERTEX
  5
AED
  8
0
 10
94.59998321533203
 20
-2.897907257080078
 30
90.13755798339844
 70
   192
  0
VERTEX
  5
AEE
  8
0
 10
94.59998321533203
 20
-8.693761825561523
 30
90.13756561279297
 70
   192
  0
VERTEX
  5
AEF
  8
0
 62
   252
 10
0.0
 20
0.0
 30
0.0
 70
   128
 71
     3
 72
     2
 73
     1
  0
VERTEX
  5
AF0
  8
0
 62
   252
 10
0.0
 20
0.0
 30
0.0
 70
   128
 71
     2
 72
     5
 73
     4
  0
VERTEX
  5
AF1
  8
0
 62
   252
 10
0.0
 20
0.0
 30
0.0
 70
   128
 71
     5
 72
     2
 73
     3
  0
VERTEX
  5
AF2
  8
0
 62
   252
 10
0.0
 20
0.0
 30
0.0
 70
   128
 71
     7
 72
     4
 73
     6
  0
VERTEX
  5
AF3
  8
0
 62
   252
 10
0.0
 20
0.0
 30
0.0
 70
   128
 71
     5
 72
     6
 73
     4
  0
VERTEX
  5
AF4
  8
0
 62
   252
 10
0.0
 20
0.0
 30
0.0
 70
   128
 71
     3
 72
     1
 73
     8
  0
VERTEX
  5
AF5
  8
0
 62
   252
 10
0.0
 20
0.0
 30
0.0
 70
   128
 71
    10
 72
     9
 73
     8
  0
VERTEX
  5
AF6
  8
0
 62
   252
 10
0.0
 20
0.0
 30
0.0
 70
   128
 71
     8
 72
     1
 73
    10
  0
VERTEX
  5
AF7
  8
0
 62
   252
 10
0.0
 20
0.0
 30
0.0
 70
   128
 71
     9
 72
    12
 73
    11
  0
VERTEX
  5
AF8
  8
0
 62
   252
 10
0.0
 20
0.0
 30
0.0
 70
   128
 71
    12
 72
     9
 73
    10
  0
VERTEX
  5
AF9
  8
0
 62
   252
 10
0.0
 20
0.0
 30
0.0
 70
   128
 71
    15
 72
    14
 73
    13
  0
VERTEX
  5
AFA
  8
0
 62
   252
 10
0.0
 20
0.0
 30
0.0
 70
   128
 71
    16
 72
    14
 73
    15
  0
VERTEX
  5
AFB
  8
0
 62
   252
 10
0.0
 20
0.0
 30
0.0
 70
   128
 71
    17
 72
    13
 73
    14
  0
VERTEX
  5
AFC
  8
0
 62
   252
 10
0.0
 20
0.0
 30
0.0
 70
   128
 71
    13
 72
    17
 73
    18
  0
VERTEX
  5
AFD
  8
0
 62
   252
 10
0.0
 20
0.0
 30
0.0
 70
   128
 71
    18
 72
    17
 73
    19
  0
VERTEX
  5
AFE
  8
0
 62
   252
 10
0.0
 20
0.0
 30
0.0
 70
   128
 71
    21
 72
    20
 73
    16
  0
VERTEX
  5
AFF
  8
0
 62
   252
 10
0.0
 20
0.0
 30
0.0
 70
   128
 71
    16
 72
    15
 73
    21
  0
VERTEX
  5
B00
  8
0
 62
   252
 10
0.0
 20
0.0
 30
0.0
 70
   128
 71
    24
 72
    23
 73
    22
  0
VERTEX
  5
B01
  8
0
 62
   252
 10
0.0
 20
0.0
 30
0.0
 70
   128
 71
    22
 72
    20
 73
    21
  0
VERTEX
  5
B02
  8
0
 62
   252
 10
0.0
 20
0.0
 30
0.0
 70
   128
 71
    25
 72
    22
 73
    23
  0
VERTEX
  5
B03
  8
0
 62
   252
 10
0.0
 20
0.0
 30
0.0
 70
   128
 71
    26
 72
    24
 73
    22
  0
VERTEX
  5
B04
  8
0
 62
   252
 10
0.0
 20
0.0
 30
0.0
 70
   128
 71
    20
 72
    25
 73
    27
  0
VERTEX
  5
B05
  8
0
 62
   252
 10
0.0
 20
0.0
 30
0.0
 70
   128
 71
    25
 72
    20
 73
    22
  0
VERTEX
  5
B06
  8
0
 62
   252
 10
0.0
 20
0.0
 30
0.0
 70
   128
 71
    20
 72
    27
 73
    28
  0
VERTEX
  5
B07
  8
0
 62
   252
 10
0.0
 20
0.0
 30
0.0
 70
   128
 71
    31
 72
    30
 73
    29
  0
VERTEX
  5
B08
  8
0
 62
   252
 10
0.0
 20
0.0
 30
0.0
 70
   128
 71
    30
 72
    33
 73
    32
  0
VERTEX
  5
B09
  8
0
 62
   252
 10
0.0
 20
0.0
 30
0.0
 70
   128
 71
    33
 72
    30
 73
    31
  0
VERTEX
  5
B0A
  8
0
 62
   252
 10
0.0
 20
0.0
 30
0.0
 70
   128
 71
    35
 72
    32
 73
    34
  0
VERTEX
  5
B0B
  8
0
 62
   252
 10
0.0
 20
0.0
 30
0.0
 70
   128
 71
    33
 72
    34
 73
    32
  0
VERTEX
  5
B0C
  8
0
 62
   252
 10
0.0
 20
0.0
 30
0.0
 70
   128
 71
    29
 72
    36
 73
    31
  0
VERTEX
  5
B0D
  8
0
 62
   252
 10
0.0
 20
0.0
 30
0.0
 70
   128
 71
    38
 72
    37
 73
    36
  0
VERTEX
  5
B0E
  8
0
 62
   252
 10
0.0
 20
0.0
 30
0.0
 70
   128
 71
    36
 72
    29
 73
    38
  0
VERTEX
  5
B0F
  8
0
 62
   252
 10
0.0
 20
0.0
 30
0.0
 70
   128
 71
    18
 72
    37
 73
    38
  0
VERTEX
  5
B10
  8
0
 62
   252
 10
0.0
 20
0.0
 30
0.0
 70
   128
 71
    18
 72
    19
 73
    37
  0
VERTEX
  5
B11
  8
0
 62
   252
 10
0.0
 20
0.0
 30
0.0
 70
   128
 71
    40
 72
    39
 73
    24
  0
VERTEX
  5
B12
  8
0
 62
   252
 10
0.0
 20
0.0
 30
0.0
 70
   128
 71
    43
 72
    42
 73
    41
  0
VERTEX
  5
B13
  8
0
 62
   252
 10
0.0
 20
0.0
 30
0.0
 70
   128
 71
    45
 72
    39
 73
    44
  0
VERTEX
  5
B14
  8
0
 62
   252
 10
0.0
 20
0.0
 30
0.0
 70
   128
 71
    47
 72
    46
 73
    39
  0
VERTEX
  5
B15
  8
0
 62
   252
 10
0.0
 20
0.0
 30
0.0
 70
   128
 71
    44
 72
    39
 73
    40
  0
VERTEX
  5
B16
  8
0
 62
   252
 10
0.0
 20
0.0
 30
0.0
 70
   128
 71
    39
 72
    46
 73
    48
  0
VERTEX
  5
B17
  8
0
 62
   252
 10
0.0
 20
0.0
 30
0.0
 70
   128
 71
    26
 72
    40
 73
    24
  0
VERTEX
  5
B18
  8
0
 62
   252
 10
0.0
 20
0.0
 30
0.0
 70
   128
 71
    49
 72
     6
 73
    48
  0
VERTEX
  5
B19
  8
0
 62
   252
 10
0.0
 20
0.0
 30
0.0
 70
   128
 71
    50
 72
    48
 73
     5
  0
VERTEX
  5
B1A
  8
0
 62
   252
 10
0.0
 20
0.0
 30
0.0
 70
   128
 71
     6
 72
    49
 73
    51
  0
VERTEX
  5
B1B
  8
0
 62
   252
 10
0.0
 20
0.0
 30
0.0
 70
   128
 71
    50
 72
    52
 73
    48
  0
VERTEX
  5
B1C
  8
0
 62
   252
 10
0.0
 20
0.0
 30
0.0
 70
   128
 71
    39
 72
    48
 73
    52
  0
VERTEX
  5
B1D
  8
0
 62
   252
 10
0.0
 20
0.0
 30
0.0
 70
   128
 71
    51
 72
     7
 73
     6
  0
VERTEX
  5
B1E
  8
0
 62
   252
 10
0.0
 20
0.0
 30
0.0
 70
   128
 71
    46
 72
    53
 73
    48
  0
VERTEX
  5
B1F
  8
0
 62
   252
 10
0.0
 20
0.0
 30
0.0
 70
   128
 71
    50
 72
     3
 73
    54
  0
VERTEX
  5
B20
  8
0
 62
   252
 10
0.0
 20
0.0
 30
0.0
 70
   128
 71
    57
 72
    56
 73
    55
  0
VERTEX
  5
B21
  8
0
 62
   252
 10
0.0
 20
0.0
 30
0.0
 70
   128
 71
    55
 72
    54
 73
     8
  0
VERTEX
  5
B22
  8
0
 62
   252
 10
0.0
 20
0.0
 30
0.0
 70
   128
 71
    11
 72
    58
 73
     9
  0
VERTEX
  5
B23
  8
0
 62
   252
 10
0.0
 20
0.0
 30
0.0
 70
   128
 71
     9
 72
    58
 73
    57
  0
VERTEX
  5
B24
  8
0
 62
   252
 10
0.0
 20
0.0
 30
0.0
 70
   128
 71
    43
 72
    55
 73
    56
  0
VERTEX
  5
B25
  8
0
 62
   252
 10
0.0
 20
0.0
 30
0.0
 70
   128
 71
    41
 72
    60
 73
    59
  0
VERTEX
  5
B26
  8
0
 62
   252
 10
0.0
 20
0.0
 30
0.0
 70
   128
 71
    55
 72
    43
 73
    41
  0
VERTEX
  5
B27
  8
0
 62
   252
 10
0.0
 20
0.0
 30
0.0
 70
   128
 71
    60
 72
    41
 73
    42
  0
VERTEX
  5
B28
  8
0
 62
   252
 10
0.0
 20
0.0
 30
0.0
 70
   128
 71
    61
 72
    27
 73
    25
  0
VERTEX
  5
B29
  8
0
 62
   252
 10
0.0
 20
0.0
 30
0.0
 70
   128
 71
    59
 72
    27
 73
    41
  0
VERTEX
  5
B2A
  8
0
 62
   252
 10
0.0
 20
0.0
 30
0.0
 70
   128
 71
    27
 72
    59
 73
    28
  0
VERTEX
  5
B2B
  8
0
 62
   252
 10
0.0
 20
0.0
 30
0.0
 70
   128
 71
    61
 72
    52
 73
    50
  0
VERTEX
  5
B2C
  8
0
 62
   252
 10
0.0
 20
0.0
 30
0.0
 70
   128
 71
    57
 72
    55
 73
     9
  0
VERTEX
  5
B2D
  8
0
 62
   252
 10
0.0
 20
0.0
 30
0.0
 70
   128
 71
    61
 72
    54
 73
    41
  0
VERTEX
  5
B2E
  8
0
 62
   252
 10
0.0
 20
0.0
 30
0.0
 70
   128
 71
     9
 72
    55
 73
     8
  0
VERTEX
  5
B2F
  8
0
 62
   252
 10
0.0
 20
0.0
 30
0.0
 70
   128
 71
    61
 72
    41
 73
    27
  0
VERTEX
  5
B30
  8
0
 62
   252
 10
0.0
 20
0.0
 30
0.0
 70
   128
 71
    25
 72
    23
 73
    52
  0
VERTEX
  5
B31
  8
0
 62
   252
 10
0.0
 20
0.0
 30
0.0
 70
   128
 71
    54
 72
     3
 73
     8
  0
VERTEX
  5
B32
  8
0
 62
   252
 10
0.0
 20
0.0
 30
0.0
 70
   128
 71
    54
 72
    55
 73
    41
  0
VERTEX
  5
B33
  8
0
 62
   252
 10
0.0
 20
0.0
 30
0.0
 70
   128
 71
    52
 72
    61
 73
    25
  0
VERTEX
  5
B34
  8
0
 62
   252
 10
0.0
 20
0.0
 30
0.0
 70
   128
 71
    52
 72
    23
 73
    24
  0
VERTEX
  5
B35
  8
0
 62
   252
 10
0.0
 20
0.0
 30
0.0
 70
   128
 71
    50
 72
     5
 73
     3
  0
VERTEX
  5
B36
  8
0
 62
   252
 10
0.0
 20
0.0
 30
0.0
 70
   128
 71
    50
 72
    54
 73
    61
  0
VERTEX
  5
B37
  8
0
 62
   252
 10
0.0
 20
0.0
 30
0.0
 70
   128
 71
    39
 72
    52
 73
    24
  0
VERTEX
  5
B38
  8
0
 62
   252
 10
0.0
 20
0.0
 30
0.0
 70
   128
 71
    47
 72
    39
 73
    45
  0
VERTEX
  5
B39
  8
0
 62
   252
 10
0.0
 20
0.0
 30
0.0
 70
   128
 71
    48
 72
    53
 73
    49
  0
VERTEX
  5
B3A
  8
0
 62
   252
 10
0.0
 20
0.0
 30
0.0
 70
   128
 71
    48
 72
     6
 73
     5
  0
VERTEX
  5
B3B
  8
0
 62
   252
 10
0.0
 20
0.0
 30
0.0
 70
   128
 71
    45
 72
    44
 73
    62
  0
VERTEX
  5
B3C
  8
0
 62
   252
 10
0.0
 20
0.0
 30
0.0
 70
   128
 71
    64
 72
    40
 73
    63
  0
VERTEX
  5
B3D
  8
0
 62
   252
 10
0.0
 20
0.0
 30
0.0
 70
   128
 71
    65
 72
    53
 73
    46
  0
VERTEX
  5
B3E
  8
0
 62
   252
 10
0.0
 20
0.0
 30
0.0
 70
   128
 71
    47
 72
    67
 73
    66
  0
VERTEX
  5
B3F
  8
0
 62
   252
 10
0.0
 20
0.0
 30
0.0
 70
   128
 71
    68
 72
    51
 73
    49
  0
VERTEX
  5
B40
  8
0
 62
   252
 10
0.0
 20
0.0
 30
0.0
 70
   128
 71
    49
 72
    69
 73
    68
  0
VERTEX
  5
B41
  8
0
 62
   252
 10
0.0
 20
0.0
 30
0.0
 70
   128
 71
    51
 72
    70
 73
     7
  0
VERTEX
  5
B42
  8
0
 62
   252
 10
0.0
 20
0.0
 30
0.0
 70
   128
 71
    70
 72
    51
 73
    68
  0
VERTEX
  5
B43
  8
0
 62
   252
 10
0.0
 20
0.0
 30
0.0
 70
   128
 71
    69
 72
    53
 73
    65
  0
VERTEX
  5
B44
  8
0
 62
   252
 10
0.0
 20
0.0
 30
0.0
 70
   128
 71
    69
 72
    49
 73
    53
  0
VERTEX
  5
B45
  8
0
 62
   252
 10
0.0
 20
0.0
 30
0.0
 70
   128
 71
    40
 72
    64
 73
    44
  0
VERTEX
  5
B46
  8
0
 62
   252
 10
0.0
 20
0.0
 30
0.0
 70
   128
 71
    46
 72
    66
 73
    65
  0
VERTEX
  5
B47
  8
0
 62
   252
 10
0.0
 20
0.0
 30
0.0
 70
   128
 71
    67
 72
    47
 73
    45
  0
VERTEX
  5
B48
  8
0
 62
   252
 10
0.0
 20
0.0
 30
0.0
 70
   128
 71
    47
 72
    66
 73
    46
  0
VERTEX
  5
B49
  8
0
 62
   252
 10
0.0
 20
0.0
 30
0.0
 70
   128
 71
    64
 72
    62
 73
    44
  0
VERTEX
  5
B4A
  8
0
 62
   252
 10
0.0
 20
0.0
 30
0.0
 70
   128
 71
    45
 72
    62
 73
    67
  0
VERTEX
  5
B4B
  8
0
 62
   252
 10
0.0
 20
0.0
 30
0.0
 70
   128
 71
    40
 72
    26
 73
    63
  0
VERTEX
  5
B4C
  8
0
 62
   252
 10
0.0
 20
0.0
 30
0.0
 70
   128
 71
    72
 72
    71
 73
    21
  0
VERTEX
  5
B4D
  8
0
 62
   252
 10
0.0
 20
0.0
 30
0.0
 70
   128
 71
    22
 72
    71
 73
    73
  0
VERTEX
  5
B4E
  8
0
 62
   252
 10
0.0
 20
0.0
 30
0.0
 70
   128
 71
    71
 72
    22
 73
    21
  0
VERTEX
  5
B4F
  8
0
 62
   252
 10
0.0
 20
0.0
 30
0.0
 70
   128
 71
    63
 72
    26
 73
    73
  0
VERTEX
  5
B50
  8
0
 62
   252
 10
0.0
 20
0.0
 30
0.0
 70
   128
 71
    22
 72
    73
 73
    26
  0
VERTEX
  5
B51
  8
0
 62
   252
 10
0.0
 20
0.0
 30
0.0
 70
   128
 71
    15
 72
    74
 73
    72
  0
VERTEX
  5
B52
  8
0
 62
   252
 10
0.0
 20
0.0
 30
0.0
 70
   128
 71
    72
 72
    21
 73
    15
  0
VERTEX
  5
B53
  8
0
 62
   252
 10
0.0
 20
0.0
 30
0.0
 70
   128
 71
    74
 72
    13
 73
    75
  0
VERTEX
  5
B54
  8
0
 62
   252
 10
0.0
 20
0.0
 30
0.0
 70
   128
 71
    13
 72
    74
 73
    15
  0
VERTEX
  5
B55
  8
0
 62
   252
 10
0.0
 20
0.0
 30
0.0
 70
   128
 71
    13
 72
    18
 73
    75
  0
VERTEX
  5
B56
  8
0
 62
   252
 10
0.0
 20
0.0
 30
0.0
 70
   128
 71
    38
 72
    77
 73
    76
  0
VERTEX
  5
B57
  8
0
 62
   252
 10
0.0
 20
0.0
 30
0.0
 70
   128
 71
    77
 72
    38
 73
    29
  0
VERTEX
  5
B58
  8
0
 62
   252
 10
0.0
 20
0.0
 30
0.0
 70
   128
 71
    75
 72
    18
 73
    76
  0
VERTEX
  5
B59
  8
0
 62
   252
 10
0.0
 20
0.0
 30
0.0
 70
   128
 71
    38
 72
    76
 73
    18
  0
VERTEX
  5
B5A
  8
0
 62
   252
 10
0.0
 20
0.0
 30
0.0
 70
   128
 71
    29
 72
    78
 73
    77
  0
VERTEX
  5
B5B
  8
0
 62
   252
 10
0.0
 20
0.0
 30
0.0
 70
   128
 71
    30
 72
    79
 73
    78
  0
VERTEX
  5
B5C
  8
0
 62
   252
 10
0.0
 20
0.0
 30
0.0
 70
   128
 71
    78
 72
    29
 73
    30
  0
VERTEX
  5
B5D
  8
0
 62
   252
 10
0.0
 20
0.0
 30
0.0
 70
   128
 71
    79
 72
    32
 73
    35
  0
VERTEX
  5
B5E
  8
0
 62
   252
 10
0.0
 20
0.0
 30
0.0
 70
   128
 71
    32
 72
    79
 73
    30
  0
VERTEX
  5
B5F
  8
0
 62
   252
 10
0.0
 20
0.0
 30
0.0
 70
   128
 71
    82
 72
    81
 73
    80
  0
VERTEX
  5
B60
  8
0
 62
   252
 10
0.0
 20
0.0
 30
0.0
 70
   128
 71
    81
 72
    82
 73
    83
  0
VERTEX
  5
B61
  8
0
 62
   252
 10
0.0
 20
0.0
 30
0.0
 70
   128
 71
    84
 72
    82
 73
    80
  0
VERTEX
  5
B62
  8
0
 62
   252
 10
0.0
 20
0.0
 30
0.0
 70
   128
 71
    81
 72
    83
 73
    85
  0
VERTEX
  5
B63
  8
0
 62
   252
 10
0.0
 20
0.0
 30
0.0
 70
   128
 71
    87
 72
    86
 73
    85
  0
VERTEX
  5
B64
  8
0
 62
   252
 10
0.0
 20
0.0
 30
0.0
 70
   128
 71
    85
 72
    83
 73
    87
  0
VERTEX
  5
B65
  8
0
 62
   252
 10
0.0
 20
0.0
 30
0.0
 70
   128
 71
    86
 72
    89
 73
    88
  0
VERTEX
  5
B66
  8
0
 62
   252
 10
0.0
 20
0.0
 30
0.0
 70
   128
 71
    89
 72
    86
 73
    87
  0
VERTEX
  5
B67
  8
0
 62
   252
 10
0.0
 20
0.0
 30
0.0
 70
   128
 71
    89
 72
    90
 73
    88
  0
VERTEX
  5
B68
  8
0
 62
   252
 10
0.0
 20
0.0
 30
0.0
 70
   128
 71
    93
 72
    92
 73
    91
  0
VERTEX
  5
B69
  8
0
 62
   252
 10
0.0
 20
0.0
 30
0.0
 70
   128
 71
    92
 72
    93
 73
    94
  0
VERTEX
  5
B6A
  8
0
 62
   252
 10
0.0
 20
0.0
 30
0.0
 70
   128
 71
    95
 72
    93
 73
    91
  0
VERTEX
  5
B6B
  8
0
 62
   252
 10
0.0
 20
0.0
 30
0.0
 70
   128
 71
    92
 72
    94
 73
    96
  0
VERTEX
  5
B6C
  8
0
 62
   252
 10
0.0
 20
0.0
 30
0.0
 70
   128
 71
    98
 72
    97
 73
    96
  0
VERTEX
  5
B6D
  8
0
 62
   252
 10
0.0
 20
0.0
 30
0.0
 70
   128
 71
    96
 72
    94
 73
    98
  0
VERTEX
  5
B6E
  8
0
 62
   252
 10
0.0
 20
0.0
 30
0.0
 70
   128
 71
    97
 72
   100
 73
    99
  0
VERTEX
  5
B6F
  8
0
 62
   252
 10
0.0
 20
0.0
 30
0.0
 70
   128
 71
   100
 72
    97
 73
    98
  0
VERTEX
  5
B70
  8
0
 62
   252
 10
0.0
 20
0.0
 30
0.0
 70
   128
 71
   100
 72
   101
 73
    99
  0
VERTEX
  5
B71
  8
0
 62
   252
 10
0.0
 20
0.0
 30
0.0
 70
   128
 71
   102
 72
    31
 73
    36
  0
VERTEX
  5
B72
  8
0
 62
   252
 10
0.0
 20
0.0
 30
0.0
 70
   128
 71
   104
 72
    33
 73
   103
  0
VERTEX
  5
B73
  8
0
 62
   252
 10
0.0
 20
0.0
 30
0.0
 70
   128
 71
   102
 72
   103
 73
    31
  0
VERTEX
  5
B74
  8
0
 62
   252
 10
0.0
 20
0.0
 30
0.0
 70
   128
 71
    33
 72
    31
 73
   103
  0
VERTEX
  5
B75
  8
0
 62
   252
 10
0.0
 20
0.0
 30
0.0
 70
   128
 71
    34
 72
    33
 73
   104
  0
VERTEX
  5
B76
  8
0
 62
   252
 10
0.0
 20
0.0
 30
0.0
 70
   128
 71
   102
 72
    36
 73
   105
  0
VERTEX
  5
B77
  8
0
 62
   252
 10
0.0
 20
0.0
 30
0.0
 70
   128
 71
    37
 72
   106
 73
   105
  0
VERTEX
  5
B78
  8
0
 62
   252
 10
0.0
 20
0.0
 30
0.0
 70
   128
 71
   105
 72
    36
 73
    37
  0
VERTEX
  5
B79
  8
0
 62
   252
 10
0.0
 20
0.0
 30
0.0
 70
   128
 71
    19
 72
   106
 73
    37
  0
VERTEX
  5
B7A
  8
0
 62
   252
 10
0.0
 20
0.0
 30
0.0
 70
   128
 71
   108
 72
   107
 73
    14
  0
VERTEX
  5
B7B
  8
0
 62
   252
 10
0.0
 20
0.0
 30
0.0
 70
   128
 71
    17
 72
   107
 73
   109
  0
VERTEX
  5
B7C
  8
0
 62
   252
 10
0.0
 20
0.0
 30
0.0
 70
   128
 71
   107
 72
    17
 73
    14
  0
VERTEX
  5
B7D
  8
0
 62
   252
 10
0.0
 20
0.0
 30
0.0
 70
   128
 71
   106
 72
    19
 73
   109
  0
VERTEX
  5
B7E
  8
0
 62
   252
 10
0.0
 20
0.0
 30
0.0
 70
   128
 71
    17
 72
   109
 73
    19
  0
VERTEX
  5
B7F
  8
0
 62
   252
 10
0.0
 20
0.0
 30
0.0
 70
   128
 71
    16
 72
   110
 73
   108
  0
VERTEX
  5
B80
  8
0
 62
   252
 10
0.0
 20
0.0
 30
0.0
 70
   128
 71
   108
 72
    14
 73
    16
  0
VERTEX
  5
B81
  8
0
 62
   252
 10
0.0
 20
0.0
 30
0.0
 70
   128
 71
   110
 72
    20
 73
   111
  0
VERTEX
  5
B82
  8
0
 62
   252
 10
0.0
 20
0.0
 30
0.0
 70
   128
 71
    20
 72
   110
 73
    16
  0
VERTEX
  5
B83
  8
0
 62
   252
 10
0.0
 20
0.0
 30
0.0
 70
   128
 71
    20
 72
    28
 73
   111
  0
VERTEX
  5
B84
  8
0
 62
   252
 10
0.0
 20
0.0
 30
0.0
 70
   128
 71
   113
 72
   112
 73
    56
  0
VERTEX
  5
B85
  8
0
 62
   252
 10
0.0
 20
0.0
 30
0.0
 70
   128
 71
   113
 72
    57
 73
   114
  0
VERTEX
  5
B86
  8
0
 62
   252
 10
0.0
 20
0.0
 30
0.0
 70
   128
 71
    57
 72
   113
 73
    56
  0
VERTEX
  5
B87
  8
0
 62
   252
 10
0.0
 20
0.0
 30
0.0
 70
   128
 71
   115
 72
   114
 73
    58
  0
VERTEX
  5
B88
  8
0
 62
   252
 10
0.0
 20
0.0
 30
0.0
 70
   128
 71
    11
 72
   115
 73
    58
  0
VERTEX
  5
B89
  8
0
 62
   252
 10
0.0
 20
0.0
 30
0.0
 70
   128
 71
   112
 72
    43
 73
    56
  0
VERTEX
  5
B8A
  8
0
 62
   252
 10
0.0
 20
0.0
 30
0.0
 70
   128
 71
   114
 72
    57
 73
    58
  0
VERTEX
  5
B8B
  8
0
 62
   252
 10
0.0
 20
0.0
 30
0.0
 70
   128
 71
   116
 72
    43
 73
   112
  0
VERTEX
  5
B8C
  8
0
 62
   252
 10
0.0
 20
0.0
 30
0.0
 70
   128
 71
    42
 72
   116
 73
   117
  0
VERTEX
  5
B8D
  8
0
 62
   252
 10
0.0
 20
0.0
 30
0.0
 70
   128
 71
   116
 72
    42
 73
    43
  0
VERTEX
  5
B8E
  8
0
 62
   252
 10
0.0
 20
0.0
 30
0.0
 70
   128
 71
   118
 72
    60
 73
   117
  0
VERTEX
  5
B8F
  8
0
 62
   252
 10
0.0
 20
0.0
 30
0.0
 70
   128
 71
    42
 72
   117
 73
    60
  0
VERTEX
  5
B90
  8
0
 62
   252
 10
0.0
 20
0.0
 30
0.0
 70
   128
 71
   118
 72
   111
 73
    59
  0
VERTEX
  5
B91
  8
0
 62
   252
 10
0.0
 20
0.0
 30
0.0
 70
   128
 71
    59
 72
    60
 73
   118
  0
VERTEX
  5
B92
  8
0
 62
   252
 10
0.0
 20
0.0
 30
0.0
 70
   128
 71
    59
 72
   111
 73
    28
  0
VERTEX
  5
B93
  8
0
 62
   252
 10
0.0
 20
0.0
 30
0.0
 70
   128
 71
   120
 72
   119
 73
    72
  0
VERTEX
  5
B94
  8
0
 62
   252
 10
0.0
 20
0.0
 30
0.0
 70
   128
 71
   122
 72
    63
 73
   121
  0
VERTEX
  5
B95
  8
0
 62
   252
 10
0.0
 20
0.0
 30
0.0
 70
   128
 71
   124
 72
   123
 73
    71
  0
VERTEX
  5
B96
  8
0
 62
   252
 10
0.0
 20
0.0
 30
0.0
 70
   128
 71
   119
 72
   124
 73
    72
  0
VERTEX
  5
B97
  8
0
 62
   252
 10
0.0
 20
0.0
 30
0.0
 70
   128
 71
   126
 72
   125
 73
    62
  0
VERTEX
  5
B98
  8
0
 62
   252
 10
0.0
 20
0.0
 30
0.0
 70
   128
 71
   122
 72
    64
 73
    63
  0
VERTEX
  5
B99
  8
0
 62
   252
 10
0.0
 20
0.0
 30
0.0
 70
   128
 71
   126
 72
    64
 73
   122
  0
VERTEX
  5
B9A
  8
0
 62
   252
 10
0.0
 20
0.0
 30
0.0
 70
   128
 71
    64
 72
   126
 73
    62
  0
VERTEX
  5
B9B
  8
0
 62
   252
 10
0.0
 20
0.0
 30
0.0
 70
   128
 71
   128
 72
    66
 73
   127
  0
VERTEX
  5
B9C
  8
0
 62
   252
 10
0.0
 20
0.0
 30
0.0
 70
   128
 71
   125
 72
   127
 73
    67
  0
VERTEX
  5
B9D
  8
0
 62
   252
 10
0.0
 20
0.0
 30
0.0
 70
   128
 71
    68
 72
    69
 73
   129
  0
VERTEX
  5
B9E
  8
0
 62
   252
 10
0.0
 20
0.0
 30
0.0
 70
   128
 71
    65
 72
   130
 73
    69
  0
VERTEX
  5
B9F
  8
0
 62
   252
 10
0.0
 20
0.0
 30
0.0
 70
   128
 71
   132
 72
    70
 73
   131
  0
VERTEX
  5
BA0
  8
0
 62
   252
 10
0.0
 20
0.0
 30
0.0
 70
   128
 71
    68
 72
   131
 73
    70
  0
VERTEX
  5
BA1
  8
0
 62
   252
 10
0.0
 20
0.0
 30
0.0
 70
   128
 71
   132
 72
   131
 73
   133
  0
VERTEX
  5
BA2
  8
0
 62
   252
 10
0.0
 20
0.0
 30
0.0
 70
   128
 71
   132
 72
     7
 73
    70
  0
VERTEX
  5
BA3
  8
0
 62
   252
 10
0.0
 20
0.0
 30
0.0
 70
   128
 71
   131
 72
    68
 73
   129
  0
VERTEX
  5
BA4
  8
0
 62
   252
 10
0.0
 20
0.0
 30
0.0
 70
   128
 71
   130
 72
    65
 73
   128
  0
VERTEX
  5
BA5
  8
0
 62
   252
 10
0.0
 20
0.0
 30
0.0
 70
   128
 71
   129
 72
    69
 73
   130
  0
VERTEX
  5
BA6
  8
0
 62
   252
 10
0.0
 20
0.0
 30
0.0
 70
   128
 71
   127
 72
    66
 73
    67
  0
VERTEX
  5
BA7
  8
0
 62
   252
 10
0.0
 20
0.0
 30
0.0
 70
   128
 71
   128
 72
    65
 73
    66
  0
VERTEX
  5
BA8
  8
0
 62
   252
 10
0.0
 20
0.0
 30
0.0
 70
   128
 71
   125
 72
    67
 73
    62
  0
VERTEX
  5
BA9
  8
0
 62
   252
 10
0.0
 20
0.0
 30
0.0
 70
   128
 71
   120
 72
    74
 73
   134
  0
VERTEX
  5
BAA
  8
0
 62
   252
 10
0.0
 20
0.0
 30
0.0
 70
   128
 71
   135
 72
   121
 73
    73
  0
VERTEX
  5
BAB
  8
0
 62
   252
 10
0.0
 20
0.0
 30
0.0
 70
   128
 71
    63
 72
    73
 73
   121
  0
VERTEX
  5
BAC
  8
0
 62
   252
 10
0.0
 20
0.0
 30
0.0
 70
   128
 71
   136
 72
   134
 73
    74
  0
VERTEX
  5
BAD
  8
0
 62
   252
 10
0.0
 20
0.0
 30
0.0
 70
   128
 71
    71
 72
   123
 73
    73
  0
VERTEX
  5
BAE
  8
0
 62
   252
 10
0.0
 20
0.0
 30
0.0
 70
   128
 71
   123
 72
   135
 73
    73
  0
VERTEX
  5
BAF
  8
0
 62
   252
 10
0.0
 20
0.0
 30
0.0
 70
   128
 71
    72
 72
   124
 73
    71
  0
VERTEX
  5
BB0
  8
0
 62
   252
 10
0.0
 20
0.0
 30
0.0
 70
   128
 71
    74
 72
   120
 73
    72
  0
VERTEX
  5
BB1
  8
0
 62
   252
 10
0.0
 20
0.0
 30
0.0
 70
   128
 71
    75
 72
   136
 73
    74
  0
VERTEX
  5
BB2
  8
0
 62
   252
 10
0.0
 20
0.0
 30
0.0
 70
   128
 71
    75
 72
    76
 73
    88
  0
VERTEX
  5
BB3
  8
0
 62
   252
 10
0.0
 20
0.0
 30
0.0
 70
   128
 71
   136
 72
    75
 73
    88
  0
VERTEX
  5
BB4
  8
0
 62
   252
 10
0.0
 20
0.0
 30
0.0
 70
   128
 71
    81
 72
    78
 73
    79
  0
VERTEX
  5
BB5
  8
0
 62
   252
 10
0.0
 20
0.0
 30
0.0
 70
   128
 71
    86
 72
    77
 73
    85
  0
VERTEX
  5
BB6
  8
0
 62
   252
 10
0.0
 20
0.0
 30
0.0
 70
   128
 71
    84
 72
    80
 73
    35
  0
VERTEX
  5
BB7
  8
0
 62
   252
 10
0.0
 20
0.0
 30
0.0
 70
   128
 71
    79
 72
    35
 73
    80
  0
VERTEX
  5
BB8
  8
0
 62
   252
 10
0.0
 20
0.0
 30
0.0
 70
   128
 71
    81
 72
    85
 73
    78
  0
VERTEX
  5
BB9
  8
0
 62
   252
 10
0.0
 20
0.0
 30
0.0
 70
   128
 71
    81
 72
    79
 73
    80
  0
VERTEX
  5
BBA
  8
0
 62
   252
 10
0.0
 20
0.0
 30
0.0
 70
   128
 71
    86
 72
    76
 73
    77
  0
VERTEX
  5
BBB
  8
0
 62
   252
 10
0.0
 20
0.0
 30
0.0
 70
   128
 71
    85
 72
    77
 73
    78
  0
VERTEX
  5
BBC
  8
0
 62
   252
 10
0.0
 20
0.0
 30
0.0
 70
   128
 71
    76
 72
    86
 73
    88
  0
VERTEX
  5
BBD
  8
0
 62
   252
 10
0.0
 20
0.0
 30
0.0
 70
   128
 71
   123
 72
   124
 73
   137
  0
VERTEX
  5
BBE
  8
0
 62
   252
 10
0.0
 20
0.0
 30
0.0
 70
   128
 71
   138
 72
   137
 73
   124
  0
VERTEX
  5
BBF
  8
0
 62
   252
 10
0.0
 20
0.0
 30
0.0
 70
   128
 71
   137
 72
   139
 73
   123
  0
VERTEX
  5
BC0
  8
0
 62
   252
 10
0.0
 20
0.0
 30
0.0
 70
   128
 71
   135
 72
   123
 73
   139
  0
VERTEX
  5
BC1
  8
0
 62
   252
 10
0.0
 20
0.0
 30
0.0
 70
   128
 71
   138
 72
   124
 73
   119
  0
VERTEX
  5
BC2
  8
0
 62
   252
 10
0.0
 20
0.0
 30
0.0
 70
   128
 71
   139
 72
   140
 73
   135
  0
VERTEX
  5
BC3
  8
0
 62
   252
 10
0.0
 20
0.0
 30
0.0
 70
   128
 71
   140
 72
   121
 73
   135
  0
VERTEX
  5
BC4
  8
0
 62
   252
 10
0.0
 20
0.0
 30
0.0
 70
   128
 71
   121
 72
   140
 73
   141
  0
VERTEX
  5
BC5
  8
0
 62
   252
 10
0.0
 20
0.0
 30
0.0
 70
   128
 71
   122
 72
   121
 73
   141
  0
VERTEX
  5
BC6
  8
0
 62
   252
 10
0.0
 20
0.0
 30
0.0
 70
   128
 71
   119
 72
   142
 73
   138
  0
VERTEX
  5
BC7
  8
0
 62
   252
 10
0.0
 20
0.0
 30
0.0
 70
   128
 71
   142
 72
   120
 73
   143
  0
VERTEX
  5
BC8
  8
0
 62
   252
 10
0.0
 20
0.0
 30
0.0
 70
   128
 71
   120
 72
   142
 73
   119
  0
VERTEX
  5
BC9
  8
0
 62
   252
 10
0.0
 20
0.0
 30
0.0
 70
   128
 71
   144
 72
   143
 73
   134
  0
VERTEX
  5
BCA
  8
0
 62
   252
 10
0.0
 20
0.0
 30
0.0
 70
   128
 71
   120
 72
   134
 73
   143
  0
VERTEX
  5
BCB
  8
0
 62
   252
 10
0.0
 20
0.0
 30
0.0
 70
   128
 71
   136
 72
   145
 73
   144
  0
VERTEX
  5
BCC
  8
0
 62
   252
 10
0.0
 20
0.0
 30
0.0
 70
   128
 71
   144
 72
   134
 73
   136
  0
VERTEX
  5
BCD
  8
0
 62
   252
 10
0.0
 20
0.0
 30
0.0
 70
   128
 71
    88
 72
   145
 73
   136
  0
VERTEX
  5
BCE
  8
0
 62
   252
 10
0.0
 20
0.0
 30
0.0
 70
   128
 71
    88
 72
    90
 73
   145
  0
VERTEX
  5
BCF
  8
0
 62
   252
 10
0.0
 20
0.0
 30
0.0
 70
   128
 71
    96
 72
    83
 73
    92
  0
VERTEX
  5
BD0
  8
0
 62
   252
 10
0.0
 20
0.0
 30
0.0
 70
   128
 71
    87
 72
    96
 73
    97
  0
VERTEX
  5
BD1
  8
0
 62
   252
 10
0.0
 20
0.0
 30
0.0
 70
   128
 71
    91
 72
    92
 73
    82
  0
VERTEX
  5
BD2
  8
0
 62
   252
 10
0.0
 20
0.0
 30
0.0
 70
   128
 71
    83
 72
    82
 73
    92
  0
VERTEX
  5
BD3
  8
0
 62
   252
 10
0.0
 20
0.0
 30
0.0
 70
   128
 71
    91
 72
    82
 73
    84
  0
VERTEX
  5
BD4
  8
0
 62
   252
 10
0.0
 20
0.0
 30
0.0
 70
   128
 71
    95
 72
    91
 73
    84
  0
VERTEX
  5
BD5
  8
0
 62
   252
 10
0.0
 20
0.0
 30
0.0
 70
   128
 71
    96
 72
    87
 73
    83
  0
VERTEX
  5
BD6
  8
0
 62
   252
 10
0.0
 20
0.0
 30
0.0
 70
   128
 71
    87
 72
    97
 73
    89
  0
VERTEX
  5
BD7
  8
0
 62
   252
 10
0.0
 20
0.0
 30
0.0
 70
   128
 71
    99
 72
    90
 73
    89
  0
VERTEX
  5
BD8
  8
0
 62
   252
 10
0.0
 20
0.0
 30
0.0
 70
   128
 71
    89
 72
    97
 73
    99
  0
VERTEX
  5
BD9
  8
0
 62
   252
 10
0.0
 20
0.0
 30
0.0
 70
   128
 71
   148
 72
   147
 73
   146
  0
VERTEX
  5
BDA
  8
0
 62
   252
 10
0.0
 20
0.0
 30
0.0
 70
   128
 71
   150
 72
   149
 73
   146
  0
VERTEX
  5
BDB
  8
0
 62
   252
 10
0.0
 20
0.0
 30
0.0
 70
   128
 71
   148
 72
   152
 73
   151
  0
VERTEX
  5
BDC
  8
0
 62
   252
 10
0.0
 20
0.0
 30
0.0
 70
   128
 71
   147
 72
   150
 73
   146
  0
VERTEX
  5
BDD
  8
0
 62
   252
 10
0.0
 20
0.0
 30
0.0
 70
   128
 71
   148
 72
   151
 73
   147
  0
VERTEX
  5
BDE
  8
0
 62
   252
 10
0.0
 20
0.0
 30
0.0
 70
   128
 71
   153
 72
   151
 73
   152
  0
VERTEX
  5
BDF
  8
0
 62
   252
 10
0.0
 20
0.0
 30
0.0
 70
   128
 71
   153
 72
   155
 73
   154
  0
VERTEX
  5
BE0
  8
0
 62
   252
 10
0.0
 20
0.0
 30
0.0
 70
   128
 71
   153
 72
   152
 73
   155
  0
VERTEX
  5
BE1
  8
0
 62
   252
 10
0.0
 20
0.0
 30
0.0
 70
   128
 71
   155
 72
   156
 73
   154
  0
VERTEX
  5
BE2
  8
0
 62
   252
 10
0.0
 20
0.0
 30
0.0
 70
   128
 71
   149
 72
   158
 73
   157
  0
VERTEX
  5
BE3
  8
0
 62
   252
 10
0.0
 20
0.0
 30
0.0
 70
   128
 71
   158
 72
   149
 73
   150
  0
VERTEX
  5
BE4
  8
0
 62
   252
 10
0.0
 20
0.0
 30
0.0
 70
   128
 71
   160
 72
   157
 73
   159
  0
VERTEX
  5
BE5
  8
0
 62
   252
 10
0.0
 20
0.0
 30
0.0
 70
   128
 71
   158
 72
   159
 73
   157
  0
VERTEX
  5
BE6
  8
0
 62
   252
 10
0.0
 20
0.0
 30
0.0
 70
   128
 71
   162
 72
   161
 73
   160
  0
VERTEX
  5
BE7
  8
0
 62
   252
 10
0.0
 20
0.0
 30
0.0
 70
   128
 71
   160
 72
   159
 73
   162
  0
VERTEX
  5
BE8
  8
0
 62
   252
 10
0.0
 20
0.0
 30
0.0
 70
   128
 71
   161
 72
   163
 73
   101
  0
VERTEX
  5
BE9
  8
0
 62
   252
 10
0.0
 20
0.0
 30
0.0
 70
   128
 71
   163
 72
   161
 73
   162
  0
VERTEX
  5
BEA
  8
0
 62
   252
 10
0.0
 20
0.0
 30
0.0
 70
   128
 71
   163
 72
    99
 73
   101
  0
VERTEX
  5
BEB
  8
0
 62
   252
 10
0.0
 20
0.0
 30
0.0
 70
   128
 71
   164
 72
   156
 73
   111
  0
VERTEX
  5
BEC
  8
0
 62
   252
 10
0.0
 20
0.0
 30
0.0
 70
   128
 71
   114
 72
   165
 73
   113
  0
VERTEX
  5
BED
  8
0
 62
   252
 10
0.0
 20
0.0
 30
0.0
 70
   128
 71
   166
 72
   112
 73
   113
  0
VERTEX
  5
BEE
  8
0
 62
   252
 10
0.0
 20
0.0
 30
0.0
 70
   128
 71
   106
 72
   109
 73
   161
  0
VERTEX
  5
BEF
  8
0
 62
   252
 10
0.0
 20
0.0
 30
0.0
 70
   128
 71
   109
 72
   157
 73
   160
  0
VERTEX
  5
BF0
  8
0
 62
   252
 10
0.0
 20
0.0
 30
0.0
 70
   128
 71
   114
 72
   115
 73
   167
  0
VERTEX
  5
BF1
  8
0
 62
   252
 10
0.0
 20
0.0
 30
0.0
 70
   128
 71
   167
 72
   165
 73
   114
  0
VERTEX
  5
BF2
  8
0
 62
   252
 10
0.0
 20
0.0
 30
0.0
 70
   128
 71
   103
 72
    93
 73
   104
  0
VERTEX
  5
BF3
  8
0
 62
   252
 10
0.0
 20
0.0
 30
0.0
 70
   128
 71
   106
 72
   101
 73
   100
  0
VERTEX
  5
BF4
  8
0
 62
   252
 10
0.0
 20
0.0
 30
0.0
 70
   128
 71
   166
 72
   113
 73
   165
  0
VERTEX
  5
BF5
  8
0
 62
   252
 10
0.0
 20
0.0
 30
0.0
 70
   128
 71
   167
 72
   115
 73
   168
  0
VERTEX
  5
BF6
  8
0
 62
   252
 10
0.0
 20
0.0
 30
0.0
 70
   128
 71
   105
 72
   106
 73
   100
  0
VERTEX
  5
BF7
  8
0
 62
   252
 10
0.0
 20
0.0
 30
0.0
 70
   128
 71
   102
 72
   105
 73
    98
  0
VERTEX
  5
BF8
  8
0
 62
   252
 10
0.0
 20
0.0
 30
0.0
 70
   128
 71
   103
 72
    94
 73
    93
  0
VERTEX
  5
BF9
  8
0
 62
   252
 10
0.0
 20
0.0
 30
0.0
 70
   128
 71
   168
 72
   115
 73
    11
  0
VERTEX
  5
BFA
  8
0
 62
   252
 10
0.0
 20
0.0
 30
0.0
 70
   128
 71
   169
 72
   167
 73
   168
  0
VERTEX
  5
BFB
  8
0
 62
   252
 10
0.0
 20
0.0
 30
0.0
 70
   128
 71
   103
 72
   102
 73
    94
  0
VERTEX
  5
BFC
  8
0
 62
   252
 10
0.0
 20
0.0
 30
0.0
 70
   128
 71
   104
 72
    93
 73
    95
  0
VERTEX
  5
BFD
  8
0
 62
   252
 10
0.0
 20
0.0
 30
0.0
 70
   128
 71
   170
 72
   112
 73
   166
  0
VERTEX
  5
BFE
  8
0
 62
   252
 10
0.0
 20
0.0
 30
0.0
 70
   128
 71
   116
 72
   170
 73
   171
  0
VERTEX
  5
BFF
  8
0
 62
   252
 10
0.0
 20
0.0
 30
0.0
 70
   128
 71
   170
 72
   116
 73
   112
  0
VERTEX
  5
C00
  8
0
 62
   252
 10
0.0
 20
0.0
 30
0.0
 70
   128
 71
   172
 72
   117
 73
   171
  0
VERTEX
  5
C01
  8
0
 62
   252
 10
0.0
 20
0.0
 30
0.0
 70
   128
 71
   116
 72
   171
 73
   117
  0
VERTEX
  5
C02
  8
0
 62
   252
 10
0.0
 20
0.0
 30
0.0
 70
   128
 71
   172
 72
   164
 73
   118
  0
VERTEX
  5
C03
  8
0
 62
   252
 10
0.0
 20
0.0
 30
0.0
 70
   128
 71
   118
 72
   117
 73
   172
  0
VERTEX
  5
C04
  8
0
 62
   252
 10
0.0
 20
0.0
 30
0.0
 70
   128
 71
   164
 72
   111
 73
   118
  0
VERTEX
  5
C05
  8
0
 62
   252
 10
0.0
 20
0.0
 30
0.0
 70
   128
 71
   155
 72
   111
 73
   156
  0
VERTEX
  5
C06
  8
0
 62
   252
 10
0.0
 20
0.0
 30
0.0
 70
   128
 71
   108
 72
   110
 73
   148
  0
VERTEX
  5
C07
  8
0
 62
   252
 10
0.0
 20
0.0
 30
0.0
 70
   128
 71
   110
 72
   155
 73
   152
  0
VERTEX
  5
C08
  8
0
 62
   252
 10
0.0
 20
0.0
 30
0.0
 70
   128
 71
   107
 72
   149
 73
   157
  0
VERTEX
  5
C09
  8
0
 62
   252
 10
0.0
 20
0.0
 30
0.0
 70
   128
 71
   146
 72
   149
 73
   108
  0
VERTEX
  5
C0A
  8
0
 62
   252
 10
0.0
 20
0.0
 30
0.0
 70
   128
 71
    34
 72
   104
 73
    95
  0
VERTEX
  5
C0B
  8
0
 62
   252
 10
0.0
 20
0.0
 30
0.0
 70
   128
 71
   100
 72
    98
 73
   105
  0
VERTEX
  5
C0C
  8
0
 62
   252
 10
0.0
 20
0.0
 30
0.0
 70
   128
 71
    98
 72
    94
 73
   102
  0
VERTEX
  5
C0D
  8
0
 62
   252
 10
0.0
 20
0.0
 30
0.0
 70
   128
 71
   101
 72
   106
 73
   161
  0
VERTEX
  5
C0E
  8
0
 62
   252
 10
0.0
 20
0.0
 30
0.0
 70
   128
 71
   107
 72
   157
 73
   109
  0
VERTEX
  5
C0F
  8
0
 62
   252
 10
0.0
 20
0.0
 30
0.0
 70
   128
 71
   160
 72
   161
 73
   109
  0
VERTEX
  5
C10
  8
0
 62
   252
 10
0.0
 20
0.0
 30
0.0
 70
   128
 71
   108
 72
   149
 73
   107
  0
VERTEX
  5
C11
  8
0
 62
   252
 10
0.0
 20
0.0
 30
0.0
 70
   128
 71
   108
 72
   148
 73
   146
  0
VERTEX
  5
C12
  8
0
 62
   252
 10
0.0
 20
0.0
 30
0.0
 70
   128
 71
   110
 72
   152
 73
   148
  0
VERTEX
  5
C13
  8
0
 62
   252
 10
0.0
 20
0.0
 30
0.0
 70
   128
 71
   110
 72
   111
 73
   155
  0
VERTEX
  5
C14
  8
0
 62
   252
 10
0.0
 20
0.0
 30
0.0
 70
   128
 71
   173
 72
   126
 73
   141
  0
VERTEX
  5
C15
  8
0
 62
   252
 10
0.0
 20
0.0
 30
0.0
 70
   128
 71
   128
 72
   175
 73
   174
  0
VERTEX
  5
C16
  8
0
 62
   252
 10
0.0
 20
0.0
 30
0.0
 70
   128
 71
   125
 72
   176
 73
   127
  0
VERTEX
  5
C17
  8
0
 62
   252
 10
0.0
 20
0.0
 30
0.0
 70
   128
 71
   129
 72
   177
 73
   131
  0
VERTEX
  5
C18
  8
0
 62
   252
 10
0.0
 20
0.0
 30
0.0
 70
   128
 71
   178
 72
   129
 73
   130
  0
VERTEX
  5
C19
  8
0
 62
   252
 10
0.0
 20
0.0
 30
0.0
 70
   128
 71
   133
 72
   131
 73
   179
  0
VERTEX
  5
C1A
  8
0
 62
   252
 10
0.0
 20
0.0
 30
0.0
 70
   128
 71
   177
 72
   179
 73
   131
  0
VERTEX
  5
C1B
  8
0
 62
   252
 10
0.0
 20
0.0
 30
0.0
 70
   128
 71
   178
 72
   177
 73
   129
  0
VERTEX
  5
C1C
  8
0
 62
   252
 10
0.0
 20
0.0
 30
0.0
 70
   128
 71
   128
 72
   174
 73
   130
  0
VERTEX
  5
C1D
  8
0
 62
   252
 10
0.0
 20
0.0
 30
0.0
 70
   128
 71
   178
 72
   130
 73
   174
  0
VERTEX
  5
C1E
  8
0
 62
   252
 10
0.0
 20
0.0
 30
0.0
 70
   128
 71
   176
 72
   125
 73
   173
  0
VERTEX
  5
C1F
  8
0
 62
   252
 10
0.0
 20
0.0
 30
0.0
 70
   128
 71
   175
 72
   128
 73
   127
  0
VERTEX
  5
C20
  8
0
 62
   252
 10
0.0
 20
0.0
 30
0.0
 70
   128
 71
   127
 72
   176
 73
   175
  0
VERTEX
  5
C21
  8
0
 62
   252
 10
0.0
 20
0.0
 30
0.0
 70
   128
 71
   122
 72
   141
 73
   126
  0
VERTEX
  5
C22
  8
0
 62
   252
 10
0.0
 20
0.0
 30
0.0
 70
   128
 71
   125
 72
   126
 73
   173
  0
VERTEX
  5
C23
  8
0
 62
   252
 10
0.0
 20
0.0
 30
0.0
 70
   128
 71
   142
 72
   150
 73
   138
  0
VERTEX
  5
C24
  8
0
 62
   252
 10
0.0
 20
0.0
 30
0.0
 70
   128
 71
   137
 72
   138
 73
   147
  0
VERTEX
  5
C25
  8
0
 62
   252
 10
0.0
 20
0.0
 30
0.0
 70
   128
 71
   150
 72
   147
 73
   138
  0
VERTEX
  5
C26
  8
0
 62
   252
 10
0.0
 20
0.0
 30
0.0
 70
   128
 71
   151
 72
   139
 73
   137
  0
VERTEX
  5
C27
  8
0
 62
   252
 10
0.0
 20
0.0
 30
0.0
 70
   128
 71
   137
 72
   147
 73
   151
  0
VERTEX
  5
C28
  8
0
 62
   252
 10
0.0
 20
0.0
 30
0.0
 70
   128
 71
   139
 72
   153
 73
   140
  0
VERTEX
  5
C29
  8
0
 62
   252
 10
0.0
 20
0.0
 30
0.0
 70
   128
 71
   153
 72
   139
 73
   151
  0
VERTEX
  5
C2A
  8
0
 62
   252
 10
0.0
 20
0.0
 30
0.0
 70
   128
 71
   141
 72
   140
 73
   154
  0
VERTEX
  5
C2B
  8
0
 62
   252
 10
0.0
 20
0.0
 30
0.0
 70
   128
 71
   153
 72
   154
 73
   140
  0
VERTEX
  5
C2C
  8
0
 62
   252
 10
0.0
 20
0.0
 30
0.0
 70
   128
 71
   142
 72
   158
 73
   150
  0
VERTEX
  5
C2D
  8
0
 62
   252
 10
0.0
 20
0.0
 30
0.0
 70
   128
 71
   158
 72
   143
 73
   159
  0
VERTEX
  5
C2E
  8
0
 62
   252
 10
0.0
 20
0.0
 30
0.0
 70
   128
 71
   143
 72
   158
 73
   142
  0
VERTEX
  5
C2F
  8
0
 62
   252
 10
0.0
 20
0.0
 30
0.0
 70
   128
 71
   162
 72
   159
 73
   144
  0
VERTEX
  5
C30
  8
0
 62
   252
 10
0.0
 20
0.0
 30
0.0
 70
   128
 71
   143
 72
   144
 73
   159
  0
VERTEX
  5
C31
  8
0
 62
   252
 10
0.0
 20
0.0
 30
0.0
 70
   128
 71
   145
 72
   163
 73
   162
  0
VERTEX
  5
C32
  8
0
 62
   252
 10
0.0
 20
0.0
 30
0.0
 70
   128
 71
   162
 72
   144
 73
   145
  0
VERTEX
  5
C33
  8
0
 62
   252
 10
0.0
 20
0.0
 30
0.0
 70
   128
 71
    90
 72
   163
 73
   145
  0
VERTEX
  5
C34
  8
0
 62
   252
 10
0.0
 20
0.0
 30
0.0
 70
   128
 71
    90
 72
    99
 73
   163
  0
VERTEX
  5
C35
  8
0
 62
   252
 10
0.0
 20
0.0
 30
0.0
 70
   128
 71
   180
 72
   171
 73
   170
  0
VERTEX
  5
C36
  8
0
 62
   252
 10
0.0
 20
0.0
 30
0.0
 70
   128
 71
   166
 72
   182
 73
   181
  0
VERTEX
  5
C37
  8
0
 62
   252
 10
0.0
 20
0.0
 30
0.0
 70
   128
 71
   166
 72
   181
 73
   170
  0
VERTEX
  5
C38
  8
0
 62
   252
 10
0.0
 20
0.0
 30
0.0
 70
   128
 71
   166
 72
   165
 73
   182
  0
VERTEX
  5
C39
  8
0
 62
   252
 10
0.0
 20
0.0
 30
0.0
 70
   128
 71
   167
 72
   183
 73
   165
  0
VERTEX
  5
C3A
  8
0
 62
   252
 10
0.0
 20
0.0
 30
0.0
 70
   128
 71
   165
 72
   183
 73
   182
  0
VERTEX
  5
C3B
  8
0
 62
   252
 10
0.0
 20
0.0
 30
0.0
 70
   128
 71
   167
 72
   169
 73
   183
  0
VERTEX
  5
C3C
  8
0
 62
   252
 10
0.0
 20
0.0
 30
0.0
 70
   128
 71
   170
 72
   181
 73
   180
  0
VERTEX
  5
C3D
  8
0
 62
   252
 10
0.0
 20
0.0
 30
0.0
 70
   128
 71
   171
 72
   180
 73
   184
  0
VERTEX
  5
C3E
  8
0
 62
   252
 10
0.0
 20
0.0
 30
0.0
 70
   128
 71
   172
 72
   184
 73
   185
  0
VERTEX
  5
C3F
  8
0
 62
   252
 10
0.0
 20
0.0
 30
0.0
 70
   128
 71
   184
 72
   172
 73
   171
  0
VERTEX
  5
C40
  8
0
 62
   252
 10
0.0
 20
0.0
 30
0.0
 70
   128
 71
   186
 72
   164
 73
   185
  0
VERTEX
  5
C41
  8
0
 62
   252
 10
0.0
 20
0.0
 30
0.0
 70
   128
 71
   172
 72
   185
 73
   164
  0
VERTEX
  5
C42
  8
0
 62
   252
 10
0.0
 20
0.0
 30
0.0
 70
   128
 71
   186
 72
   154
 73
   156
  0
VERTEX
  5
C43
  8
0
 62
   252
 10
0.0
 20
0.0
 30
0.0
 70
   128
 71
   156
 72
   164
 73
   186
  0
VERTEX
  5
C44
  8
0
 62
   252
 10
0.0
 20
0.0
 30
0.0
 70
   128
 71
   133
 72
   179
 73
   187
  0
VERTEX
  5
C45
  8
0
 62
   252
 10
0.0
 20
0.0
 30
0.0
 70
   128
 71
   185
 72
   176
 73
   173
  0
VERTEX
  5
C46
  8
0
 62
   252
 10
0.0
 20
0.0
 30
0.0
 70
   128
 71
   188
 72
   179
 73
   177
  0
VERTEX
  5
C47
  8
0
 62
   252
 10
0.0
 20
0.0
 30
0.0
 70
   128
 71
   187
 72
   179
 73
   188
  0
VERTEX
  5
C48
  8
0
 62
   252
 10
0.0
 20
0.0
 30
0.0
 70
   128
 71
   189
 72
   182
 73
   183
  0
VERTEX
  5
C49
  8
0
 62
   252
 10
0.0
 20
0.0
 30
0.0
 70
   128
 71
   189
 72
   188
 73
   177
  0
VERTEX
  5
C4A
  8
0
 62
   252
 10
0.0
 20
0.0
 30
0.0
 70
   128
 71
   183
 72
   169
 73
   190
  0
VERTEX
  5
C4B
  8
0
 62
   252
 10
0.0
 20
0.0
 30
0.0
 70
   128
 71
   189
 72
   183
 73
   190
  0
VERTEX
  5
C4C
  8
0
 62
   252
 10
0.0
 20
0.0
 30
0.0
 70
   128
 71
   177
 72
   178
 73
   182
  0
VERTEX
  5
C4D
  8
0
 62
   252
 10
0.0
 20
0.0
 30
0.0
 70
   128
 71
   182
 72
   189
 73
   177
  0
VERTEX
  5
C4E
  8
0
 62
   252
 10
0.0
 20
0.0
 30
0.0
 70
   128
 71
   181
 72
   178
 73
   174
  0
VERTEX
  5
C4F
  8
0
 62
   252
 10
0.0
 20
0.0
 30
0.0
 70
   128
 71
   178
 72
   181
 73
   182
  0
VERTEX
  5
C50
  8
0
 62
   252
 10
0.0
 20
0.0
 30
0.0
 70
   128
 71
   181
 72
   174
 73
   180
  0
VERTEX
  5
C51
  8
0
 62
   252
 10
0.0
 20
0.0
 30
0.0
 70
   128
 71
   175
 72
   180
 73
   174
  0
VERTEX
  5
C52
  8
0
 62
   252
 10
0.0
 20
0.0
 30
0.0
 70
   128
 71
   184
 72
   175
 73
   176
  0
VERTEX
  5
C53
  8
0
 62
   252
 10
0.0
 20
0.0
 30
0.0
 70
   128
 71
   175
 72
   184
 73
   180
  0
VERTEX
  5
C54
  8
0
 62
   252
 10
0.0
 20
0.0
 30
0.0
 70
   128
 71
   185
 72
   173
 73
   186
  0
VERTEX
  5
C55
  8
0
 62
   252
 10
0.0
 20
0.0
 30
0.0
 70
   128
 71
   184
 72
   176
 73
   185
  0
VERTEX
  5
C56
  8
0
 62
   252
 10
0.0
 20
0.0
 30
0.0
 70
   128
 71
   141
 72
   154
 73
   186
  0
VERTEX
  5
C57
  8
0
 62
   252
 10
0.0
 20
0.0
 30
0.0
 70
   128
 71
   186
 72
   173
 73
   141
  0
VERTEX
  5
C58
  8
0
 62
     9
 10
0.0
 20
0.0
 30
0.0
 70
   128
 71
    11
 72
    12
 73
   168
  0
VERTEX
  5
C59
  8
0
 62
     9
 10
0.0
 20
0.0
 30
0.0
 70
   128
 71
   188
 72
     4
 73
   132
  0
VERTEX
  5
C5A
  8
0
 62
     9
 10
0.0
 20
0.0
 30
0.0
 70
   128
 71
     4
 72
   188
 73
     2
  0
VERTEX
  5
C5B
  8
0
 62
     9
 10
0.0
 20
0.0
 30
0.0
 70
   128
 71
     1
 72
     2
 73
   188
  0
VERTEX
  5
C5C
  8
0
 62
     9
 10
0.0
 20
0.0
 30
0.0
 70
   128
 71
   187
 72
   188
 73
   132
  0
VERTEX
  5
C5D
  8
0
 62
     9
 10
0.0
 20
0.0
 30
0.0
 70
   128
 71
   189
 72
     1
 73
   188
  0
VERTEX
  5
C5E
  8
0
 62
     9
 10
0.0
 20
0.0
 30
0.0
 70
   128
 71
     4
 72
     7
 73
   132
  0
VERTEX
  5
C5F
  8
0
 62
     9
 10
0.0
 20
0.0
 30
0.0
 70
   128
 71
   187
 72
   132
 73
   133
  0
VERTEX
  5
C60
  8
0
 62
     9
 10
0.0
 20
0.0
 30
0.0
 70
   128
 71
    12
 72
    10
 73
   189
  0
VERTEX
  5
C61
  8
0
 62
     9
 10
0.0
 20
0.0
 30
0.0
 70
   128
 71
    10
 72
     1
 73
   189
  0
VERTEX
  5
C62
  8
0
 62
     9
 10
0.0
 20
0.0
 30
0.0
 70
   128
 71
   189
 72
   190
 73
   168
  0
VERTEX
  5
C63
  8
0
 62
     9
 10
0.0
 20
0.0
 30
0.0
 70
   128
 71
   168
 72
    12
 73
   189
  0
VERTEX
  5
C64
  8
0
 62
     9
 10
0.0
 20
0.0
 30
0.0
 70
   128
 71
   190
 72
   169
 73
   168
  0
SEQEND
  5
C65
  8
0
  0
ENDBLK
  5
C68
  8
0
  0
ENDSEC
  0
SECTION
  2
ENTITIES
  0
INSERT
  5
322
  8
LAYER_1
  2
38
 10
0.0
 20
0.0
 30
0.0
  0
INSERT
  5
4CD
  8
LAYER_1
  2
39
 10
0.0
 20
0.0
 30
0.0
  0
INSERT
  5
55B
  8
LAYER_1
  2
40
 10
0.0
 20
0.0
 30
0.0
  0
INSERT
  5
624
  8
LAYER_1
  2
41
 10
0.0
 20
0.0
 30
0.0
  0
INSERT
  5
745
  8
LAYER_1
  2
42
 10
0.0
 20
0.0
 30
0.0
  0
INSERT
  5
75F
  8
LAYER_1
  2
43
 10
0.0
 20
0.0
 30
0.0
  0
INSERT
  5
89B
  8
LAYER_1
  2
44
 10
0.0
 20
0.0
 30
0.0
  0
INSERT
  5
8C5
  8
LAYER_1
  2
45
 10
0.0
 20
0.0
 30
0.0
  0
INSERT
  5
A2C
  8
LAYER_1
  2
46
 10
0.0
 20
0.0
 30
0.0
  0
INSERT
  5
C66
  8
LAYER_1
  2
111012_ALLURE_D4A_CONCEPTS
 10
0.0
 20
0.0
 30
0.0
  0
ENDSEC
  0
EOF
