999
Converted by 3D Exploration 
999
XDimension Software, LLC
999
http://www.xdsoft.com/explorer/
0
SECTION
2
HEADER
9
$ACADVER
1
AC1008
9
$UCSORG
10
0.0
20
0.0
30
0.0
9
$UCSXDIR
10
1.0
20
0.0
30
0.0
9
$TILEMODE
70
1
9
$UCSYDIR
10
0.0
20
1.0
30
0.0
9
$EXTMIN
10
0.000000
20
-25.000000
30
-25.000000
9
$EXTMAX
10
69.210999
20
25.000000
30
25.000000
0
ENDSEC
0
SECTION
2
TABLES
0
TABLE
2
LTYPE
70
1
0
LTYPE
2
CONTINUOUS
70
64
3
Solid line
72
65
73
0
40
0.0
0
ENDTAB
0
TABLE
2
LAYER
70
23
0
LAYER
2
OBJECT__0
70
0
62
253
6
CONTINUOUS
0
LAYER
2
OBJECT__1
70
0
62
253
6
CONTINUOUS
0
LAYER
2
OBJECT__3
70
0
62
253
6
CONTINUOUS
0
LAYER
2
OBJECT__4
70
0
62
253
6
CONTINUOUS
0
LAYER
2
OBJECT__5
70
0
62
253
6
CONTINUOUS
0
LAYER
2
OBJECT__6
70
0
62
253
6
CONTINUOUS
0
LAYER
2
OBJECT__8
70
0
62
253
6
CONTINUOUS
0
LAYER
2
OBJECT__9
70
0
62
253
6
CONTINUOUS
0
LAYER
2
OBJECT__10
70
0
62
253
6
CONTINUOUS
0
LAYER
2
OBJECT__11
70
0
62
253
6
CONTINUOUS
0
LAYER
2
OBJECT__12
70
0
62
253
6
CONTINUOUS
0
LAYER
2
OBJECT__13
70
0
62
253
6
CONTINUOUS
0
LAYER
2
OBJECT__14
70
0
62
253
6
CONTINUOUS
0
LAYER
2
OBJECT__15
70
0
62
253
6
CONTINUOUS
0
LAYER
2
OBJECT__16
70
0
62
253
6
CONTINUOUS
0
LAYER
2
OBJECT__17
70
0
62
253
6
CONTINUOUS
0
LAYER
2
OBJECT__19
70
0
62
253
6
CONTINUOUS
0
LAYER
2
OBJECT__20
70
0
62
253
6
CONTINUOUS
0
LAYER
2
OBJECT__21
70
0
62
253
6
CONTINUOUS
0
LAYER
2
OBJECT__22
70
0
62
253
6
CONTINUOUS
0
ENDTAB
0
TABLE
2
STYLE
70
1
0
STYLE
2
STANDARD
70
0
40
0.0
41
1.0
50
0.0
71
0
42
0.2
3
txt
4
1
0
ENDTAB
0
TABLE
2
UCS
70
0
0
ENDTAB
0
ENDSEC
0
SECTION
2
ENTITIES
0
POLYLINE
8
OBJECT__0
66
1
70
64
71
12
72
10
62
253
0
VERTEX
8
OBJECT__0
10
0.000000
20
16.372000
30
18.893999
70
192
0
VERTEX
8
OBJECT__0
10
0.000000
20
23.987000
30
-7.043000
70
192
0
VERTEX
8
OBJECT__0
10
0.000000
20
16.372000
30
-18.893999
70
192
0
VERTEX
8
OBJECT__0
10
0.000000
20
-10.385000
30
22.740999
70
192
0
VERTEX
8
OBJECT__0
10
0.000000
20
-21.031000
30
-13.516000
70
192
0
VERTEX
8
OBJECT__0
10
0.000000
20
-25.000000
30
0.000000
70
192
0
VERTEX
8
OBJECT__0
10
0.000000
20
23.987000
30
7.043000
70
192
0
VERTEX
8
OBJECT__0
10
0.000000
20
-10.385000
30
-22.740999
70
192
0
VERTEX
8
OBJECT__0
10
0.000000
20
3.558000
30
-24.746000
70
192
0
VERTEX
8
OBJECT__0
10
0.000000
20
3.558000
30
24.746000
70
192
0
VERTEX
8
OBJECT__0
10
0.000000
20
0.000000
30
25.000000
70
192
0
VERTEX
8
OBJECT__0
10
0.000000
20
-21.031000
30
13.516000
70
192
0
VERTEX
8
OBJECT__0
10
0
20
0
30
0
70
128
71
1
72
2
73
3
0
VERTEX
8
OBJECT__0
10
0
20
0
30
0
70
128
71
4
72
5
73
6
0
VERTEX
8
OBJECT__0
10
0
20
0
30
0
70
128
71
1
72
7
73
2
0
VERTEX
8
OBJECT__0
10
0
20
0
30
0
70
128
71
4
72
8
73
5
0
VERTEX
8
OBJECT__0
10
0
20
0
30
0
70
128
71
9
72
10
73
1
0
VERTEX
8
OBJECT__0
10
0
20
0
30
0
70
128
71
4
72
9
73
8
0
VERTEX
8
OBJECT__0
10
0
20
0
30
0
70
128
71
9
72
11
73
10
0
VERTEX
8
OBJECT__0
10
0
20
0
30
0
70
128
71
6
72
12
73
4
0
VERTEX
8
OBJECT__0
10
0
20
0
30
0
70
128
71
4
72
11
73
9
0
VERTEX
8
OBJECT__0
10
0
20
0
30
0
70
128
71
3
72
9
73
1
0
SEQEND
8
OBJECT__0
0
POLYLINE
8
OBJECT__1
66
1
70
64
71
46
72
46
62
253
0
VERTEX
8
OBJECT__1
10
0.000000
20
-21.031000
30
13.516000
70
192
0
VERTEX
8
OBJECT__1
10
0.000000
20
-25.000000
30
0.000000
70
192
0
VERTEX
8
OBJECT__1
10
7.000000
20
-23.275000
30
5.873000
70
192
0
VERTEX
8
OBJECT__1
10
7.000000
20
-21.586000
30
11.626000
70
192
0
VERTEX
8
OBJECT__1
10
7.000000
20
-25.000000
30
0.000000
70
192
0
VERTEX
8
OBJECT__1
10
7.000000
20
-18.330999
30
15.856000
70
192
0
VERTEX
8
OBJECT__1
10
7.000000
20
-14.378000
30
19.282000
70
192
0
VERTEX
8
OBJECT__1
10
0.000000
20
-10.385000
30
22.740999
70
192
0
VERTEX
8
OBJECT__1
10
7.000000
20
-21.031000
30
13.516000
70
192
0
VERTEX
8
OBJECT__1
10
0.000000
20
3.558000
30
24.746000
70
192
0
VERTEX
8
OBJECT__1
10
0.000000
20
0.000000
30
25.000000
70
192
0
VERTEX
8
OBJECT__1
10
7.000000
20
0.108000
30
24.250000
70
192
0
VERTEX
8
OBJECT__1
10
7.000000
20
-6.892000
30
23.243000
70
192
0
VERTEX
8
OBJECT__1
10
7.000000
20
-10.385000
30
22.740999
70
192
0
VERTEX
8
OBJECT__1
10
0.000000
20
16.372000
30
18.893999
70
192
0
VERTEX
8
OBJECT__1
10
7.000000
20
6.689000
30
23.316000
70
192
0
VERTEX
8
OBJECT__1
10
7.000000
20
14.819000
30
19.603001
70
192
0
VERTEX
8
OBJECT__1
10
7.000000
20
3.558000
30
24.746000
70
192
0
VERTEX
8
OBJECT__1
10
7.000000
20
18.209000
30
16.035000
70
192
0
VERTEX
8
OBJECT__1
10
7.000000
20
21.275999
30
11.262000
70
192
0
VERTEX
8
OBJECT__1
10
0.000000
20
23.987000
30
7.043000
70
192
0
VERTEX
8
OBJECT__1
10
7.000000
20
16.372000
30
18.893999
70
192
0
VERTEX
8
OBJECT__1
10
0.000000
20
23.987000
30
-7.043000
70
192
0
VERTEX
8
OBJECT__1
10
7.000000
20
25.000000
30
0.000000
70
192
0
VERTEX
8
OBJECT__1
10
7.000000
20
24.118000
30
-6.138000
70
192
0
VERTEX
8
OBJECT__1
10
7.000000
20
24.118000
30
6.138000
70
192
0
VERTEX
8
OBJECT__1
10
7.000000
20
23.987000
30
7.043000
70
192
0
VERTEX
8
OBJECT__1
10
0.000000
20
16.372000
30
-18.893999
70
192
0
VERTEX
8
OBJECT__1
10
7.000000
20
21.275999
30
-11.262000
70
192
0
VERTEX
8
OBJECT__1
10
7.000000
20
18.208000
30
-16.035000
70
192
0
VERTEX
8
OBJECT__1
10
7.000000
20
23.987000
30
-7.043000
70
192
0
VERTEX
8
OBJECT__1
10
7.000000
20
14.819000
30
-19.603001
70
192
0
VERTEX
8
OBJECT__1
10
7.000000
20
6.685000
30
-23.316999
70
192
0
VERTEX
8
OBJECT__1
10
0.000000
20
3.558000
30
-24.746000
70
192
0
VERTEX
8
OBJECT__1
10
7.000000
20
16.372000
30
-18.893999
70
192
0
VERTEX
8
OBJECT__1
10
7.000000
20
0.108000
30
-24.250000
70
192
0
VERTEX
8
OBJECT__1
10
7.000000
20
-6.889000
30
-23.243999
70
192
0
VERTEX
8
OBJECT__1
10
0.000000
20
-10.385000
30
-22.740999
70
192
0
VERTEX
8
OBJECT__1
10
7.000000
20
3.558000
30
-24.746000
70
192
0
VERTEX
8
OBJECT__1
10
0.000000
20
-21.031000
30
-13.516000
70
192
0
VERTEX
8
OBJECT__1
10
7.000000
20
-14.378000
30
-19.282000
70
192
0
VERTEX
8
OBJECT__1
10
7.000000
20
-18.330999
30
-15.856000
70
192
0
VERTEX
8
OBJECT__1
10
7.000000
20
-10.385000
30
-22.740999
70
192
0
VERTEX
8
OBJECT__1
10
7.000000
20
-21.586000
30
-11.626000
70
192
0
VERTEX
8
OBJECT__1
10
7.000000
20
-23.275000
30
-5.873000
70
192
0
VERTEX
8
OBJECT__1
10
7.000000
20
-21.031000
30
-13.516000
70
192
0
VERTEX
8
OBJECT__1
10
0
20
0
30
0
70
128
71
1
72
2
73
3
0
VERTEX
8
OBJECT__1
10
0
20
0
30
0
70
128
71
3
72
4
73
1
0
VERTEX
8
OBJECT__1
10
0
20
0
30
0
70
128
71
2
72
5
73
3
0
VERTEX
8
OBJECT__1
10
0
20
0
30
0
70
128
71
1
72
6
73
7
0
VERTEX
8
OBJECT__1
10
0
20
0
30
0
70
128
71
7
72
8
73
1
0
VERTEX
8
OBJECT__1
10
0
20
0
30
0
70
128
71
1
72
9
73
6
0
VERTEX
8
OBJECT__1
10
0
20
0
30
0
70
128
71
10
72
11
73
12
0
VERTEX
8
OBJECT__1
10
0
20
0
30
0
70
128
71
11
72
8
73
13
0
VERTEX
8
OBJECT__1
10
0
20
0
30
0
70
128
71
13
72
12
73
11
0
VERTEX
8
OBJECT__1
10
0
20
0
30
0
70
128
71
8
72
14
73
13
0
VERTEX
8
OBJECT__1
10
0
20
0
30
0
70
128
71
15
72
10
73
16
0
VERTEX
8
OBJECT__1
10
0
20
0
30
0
70
128
71
16
72
17
73
15
0
VERTEX
8
OBJECT__1
10
0
20
0
30
0
70
128
71
10
72
18
73
16
0
VERTEX
8
OBJECT__1
10
0
20
0
30
0
70
128
71
15
72
19
73
20
0
VERTEX
8
OBJECT__1
10
0
20
0
30
0
70
128
71
20
72
21
73
15
0
VERTEX
8
OBJECT__1
10
0
20
0
30
0
70
128
71
15
72
22
73
19
0
VERTEX
8
OBJECT__1
10
0
20
0
30
0
70
128
71
23
72
21
73
24
0
VERTEX
8
OBJECT__1
10
0
20
0
30
0
70
128
71
24
72
25
73
23
0
VERTEX
8
OBJECT__1
10
0
20
0
30
0
70
128
71
21
72
26
73
24
0
VERTEX
8
OBJECT__1
10
0
20
0
30
0
70
128
71
21
72
27
73
26
0
VERTEX
8
OBJECT__1
10
0
20
0
30
0
70
128
71
28
72
23
73
29
0
VERTEX
8
OBJECT__1
10
0
20
0
30
0
70
128
71
29
72
30
73
28
0
VERTEX
8
OBJECT__1
10
0
20
0
30
0
70
128
71
23
72
31
73
29
0
VERTEX
8
OBJECT__1
10
0
20
0
30
0
70
128
71
28
72
32
73
33
0
VERTEX
8
OBJECT__1
10
0
20
0
30
0
70
128
71
33
72
34
73
28
0
VERTEX
8
OBJECT__1
10
0
20
0
30
0
70
128
71
28
72
35
73
32
0
VERTEX
8
OBJECT__1
10
0
20
0
30
0
70
128
71
34
72
36
73
37
0
VERTEX
8
OBJECT__1
10
0
20
0
30
0
70
128
71
37
72
38
73
34
0
VERTEX
8
OBJECT__1
10
0
20
0
30
0
70
128
71
34
72
39
73
36
0
VERTEX
8
OBJECT__1
10
0
20
0
30
0
70
128
71
40
72
38
73
41
0
VERTEX
8
OBJECT__1
10
0
20
0
30
0
70
128
71
41
72
42
73
40
0
VERTEX
8
OBJECT__1
10
0
20
0
30
0
70
128
71
38
72
43
73
41
0
VERTEX
8
OBJECT__1
10
0
20
0
30
0
70
128
71
40
72
44
73
45
0
VERTEX
8
OBJECT__1
10
0
20
0
30
0
70
128
71
45
72
2
73
40
0
VERTEX
8
OBJECT__1
10
0
20
0
30
0
70
128
71
40
72
46
73
44
0
VERTEX
8
OBJECT__1
10
0
20
0
30
0
70
128
71
45
72
5
73
2
0
VERTEX
8
OBJECT__1
10
0
20
0
30
0
70
128
71
42
72
46
73
40
0
VERTEX
8
OBJECT__1
10
0
20
0
30
0
70
128
71
37
72
43
73
38
0
VERTEX
8
OBJECT__1
10
0
20
0
30
0
70
128
71
33
72
39
73
34
0
VERTEX
8
OBJECT__1
10
0
20
0
30
0
70
128
71
30
72
35
73
28
0
VERTEX
8
OBJECT__1
10
0
20
0
30
0
70
128
71
25
72
31
73
23
0
VERTEX
8
OBJECT__1
10
0
20
0
30
0
70
128
71
20
72
27
73
21
0
VERTEX
8
OBJECT__1
10
0
20
0
30
0
70
128
71
17
72
22
73
15
0
VERTEX
8
OBJECT__1
10
0
20
0
30
0
70
128
71
12
72
18
73
10
0
VERTEX
8
OBJECT__1
10
0
20
0
30
0
70
128
71
7
72
14
73
8
0
VERTEX
8
OBJECT__1
10
0
20
0
30
0
70
128
71
4
72
9
73
1
0
SEQEND
8
OBJECT__1
0
POLYLINE
8
OBJECT__3
66
1
70
64
71
102
72
134
62
253
0
VERTEX
8
OBJECT__3
10
8.049000
20
6.649000
30
22.679001
70
192
0
VERTEX
8
OBJECT__3
10
7.498000
20
6.655000
30
22.927000
70
192
0
VERTEX
8
OBJECT__3
10
7.577000
20
0.055000
30
24.028000
70
192
0
VERTEX
8
OBJECT__3
10
7.000000
20
6.689000
30
23.316000
70
192
0
VERTEX
8
OBJECT__3
10
7.000000
20
3.558000
30
24.746000
70
192
0
VERTEX
8
OBJECT__3
10
7.499000
20
-6.749000
30
-22.891001
70
192
0
VERTEX
8
OBJECT__3
10
7.577000
20
0.033000
30
-24.030001
70
192
0
VERTEX
8
OBJECT__3
10
8.049000
20
0.000000
30
-24.000999
70
192
0
VERTEX
8
OBJECT__3
10
7.000000
20
-6.889000
30
-23.243999
70
192
0
VERTEX
8
OBJECT__3
10
7.000000
20
0.108000
30
-24.250000
70
192
0
VERTEX
8
OBJECT__3
10
7.805000
20
24.031000
30
-6.103000
70
192
0
VERTEX
8
OBJECT__3
10
7.804000
20
24.794001
30
0.000000
70
192
0
VERTEX
8
OBJECT__3
10
8.049000
20
24.000999
30
0.000000
70
192
0
VERTEX
8
OBJECT__3
10
7.459000
20
14.510000
30
19.226999
70
192
0
VERTEX
8
OBJECT__3
10
8.049000
20
14.164000
30
18.847000
70
192
0
VERTEX
8
OBJECT__3
10
8.049000
20
16.971001
30
16.971001
70
192
0
VERTEX
8
OBJECT__3
10
7.516000
20
18.041000
30
15.812000
70
192
0
VERTEX
8
OBJECT__3
10
7.804000
20
10.865000
30
22.287001
70
192
0
VERTEX
8
OBJECT__3
10
8.049000
20
9.185000
30
22.174000
70
192
0
VERTEX
8
OBJECT__3
10
7.531000
20
21.069000
30
11.170000
70
192
0
VERTEX
8
OBJECT__3
10
8.049000
20
20.892000
30
11.104000
70
192
0
VERTEX
8
OBJECT__3
10
8.049000
20
22.174000
30
9.185000
70
192
0
VERTEX
8
OBJECT__3
10
7.804000
20
24.032000
30
6.103000
70
192
0
VERTEX
8
OBJECT__3
10
8.049000
20
17.864000
30
15.635000
70
192
0
VERTEX
8
OBJECT__3
10
8.049000
20
22.843000
30
5.824000
70
192
0
VERTEX
8
OBJECT__3
10
7.494000
20
6.636000
30
-22.945000
70
192
0
VERTEX
8
OBJECT__3
10
7.805000
20
10.866000
30
-22.287001
70
192
0
VERTEX
8
OBJECT__3
10
8.049000
20
9.185000
30
-22.174000
70
192
0
VERTEX
8
OBJECT__3
10
8.049000
20
14.164000
30
-18.847000
70
192
0
VERTEX
8
OBJECT__3
10
7.450000
20
14.477000
30
-19.223000
70
192
0
VERTEX
8
OBJECT__3
10
7.555000
20
21.121000
30
-11.212000
70
192
0
VERTEX
8
OBJECT__3
10
8.049000
20
20.892000
30
-11.104000
70
192
0
VERTEX
8
OBJECT__3
10
8.049000
20
17.864000
30
-15.635000
70
192
0
VERTEX
8
OBJECT__3
10
8.049000
20
22.174000
30
-9.185000
70
192
0
VERTEX
8
OBJECT__3
10
8.049000
20
22.843000
30
-5.824000
70
192
0
VERTEX
8
OBJECT__3
10
7.526000
20
18.017000
30
-15.824000
70
192
0
VERTEX
8
OBJECT__3
10
8.049000
20
16.971001
30
-16.971001
70
192
0
VERTEX
8
OBJECT__3
10
7.000000
20
24.118000
30
-6.138000
70
192
0
VERTEX
8
OBJECT__3
10
7.000000
20
25.000000
30
0.000000
70
192
0
VERTEX
8
OBJECT__3
10
7.000000
20
18.209000
30
16.035000
70
192
0
VERTEX
8
OBJECT__3
10
7.000000
20
16.372000
30
18.893999
70
192
0
VERTEX
8
OBJECT__3
10
7.000000
20
14.819000
30
19.603001
70
192
0
VERTEX
8
OBJECT__3
10
7.000000
20
23.987000
30
7.043000
70
192
0
VERTEX
8
OBJECT__3
10
7.000000
20
24.118000
30
6.138000
70
192
0
VERTEX
8
OBJECT__3
10
7.000000
20
21.275999
30
11.262000
70
192
0
VERTEX
8
OBJECT__3
10
7.000000
20
14.819000
30
-19.603001
70
192
0
VERTEX
8
OBJECT__3
10
7.000000
20
6.685000
30
-23.316999
70
192
0
VERTEX
8
OBJECT__3
10
7.000000
20
21.275999
30
-11.262000
70
192
0
VERTEX
8
OBJECT__3
10
7.000000
20
23.987000
30
-7.043000
70
192
0
VERTEX
8
OBJECT__3
10
7.000000
20
16.372000
30
-18.893999
70
192
0
VERTEX
8
OBJECT__3
10
7.000000
20
3.558000
30
-24.746000
70
192
0
VERTEX
8
OBJECT__3
10
7.000000
20
-23.275000
30
5.873000
70
192
0
VERTEX
8
OBJECT__3
10
7.000000
20
-25.000000
30
0.000000
70
192
0
VERTEX
8
OBJECT__3
10
7.541000
20
-24.386000
30
0.013000
70
192
0
VERTEX
8
OBJECT__3
10
7.000000
20
-18.330999
30
-15.856000
70
192
0
VERTEX
8
OBJECT__3
10
7.000000
20
-14.378000
30
-19.282000
70
192
0
VERTEX
8
OBJECT__3
10
7.804000
20
-16.827999
30
-18.209999
70
192
0
VERTEX
8
OBJECT__3
10
7.522000
20
-14.269000
30
-19.031000
70
192
0
VERTEX
8
OBJECT__3
10
7.000000
20
-10.385000
30
-22.740999
70
192
0
VERTEX
8
OBJECT__3
10
7.804000
20
-10.866000
30
-22.287001
70
192
0
VERTEX
8
OBJECT__3
10
7.000000
20
-23.275000
30
-5.873000
70
192
0
VERTEX
8
OBJECT__3
10
7.000000
20
-21.586000
30
-11.626000
70
192
0
VERTEX
8
OBJECT__3
10
7.805000
20
-23.110001
30
-8.982000
70
192
0
VERTEX
8
OBJECT__3
10
7.477000
20
-21.240999
30
-11.357000
70
192
0
VERTEX
8
OBJECT__3
10
7.525000
20
-18.077999
30
-15.710000
70
192
0
VERTEX
8
OBJECT__3
10
7.000000
20
-21.031000
30
-13.516000
70
192
0
VERTEX
8
OBJECT__3
10
7.521000
20
-23.056999
30
-5.837000
70
192
0
VERTEX
8
OBJECT__3
10
7.499000
20
-6.729000
30
22.895000
70
192
0
VERTEX
8
OBJECT__3
10
7.000000
20
-6.892000
30
23.243000
70
192
0
VERTEX
8
OBJECT__3
10
7.000000
20
-10.385000
30
22.740999
70
192
0
VERTEX
8
OBJECT__3
10
7.000000
20
-14.378000
30
19.282000
70
192
0
VERTEX
8
OBJECT__3
10
7.512000
20
-14.230000
30
19.025000
70
192
0
VERTEX
8
OBJECT__3
10
7.804000
20
-10.865000
30
22.287001
70
192
0
VERTEX
8
OBJECT__3
10
7.523000
20
-18.082001
30
15.751000
70
192
0
VERTEX
8
OBJECT__3
10
7.000000
20
-18.330999
30
15.856000
70
192
0
VERTEX
8
OBJECT__3
10
7.000000
20
-21.031000
30
13.516000
70
192
0
VERTEX
8
OBJECT__3
10
7.478000
20
-21.223000
30
11.377000
70
192
0
VERTEX
8
OBJECT__3
10
7.527000
20
-23.077999
30
5.860000
70
192
0
VERTEX
8
OBJECT__3
10
7.804000
20
-23.110001
30
8.982000
70
192
0
VERTEX
8
OBJECT__3
10
7.000000
20
-21.586000
30
11.626000
70
192
0
VERTEX
8
OBJECT__3
10
7.804000
20
-16.827999
30
18.209999
70
192
0
VERTEX
8
OBJECT__3
10
7.000000
20
0.108000
30
24.250000
70
192
0
VERTEX
8
OBJECT__3
10
8.049000
20
-24.000999
30
0.000000
70
192
0
VERTEX
8
OBJECT__3
10
8.049000
20
-16.971001
30
-16.971001
70
192
0
VERTEX
8
OBJECT__3
10
8.049000
20
-14.164000
30
-18.847000
70
192
0
VERTEX
8
OBJECT__3
10
8.049000
20
-6.646000
30
-22.679001
70
192
0
VERTEX
8
OBJECT__3
10
8.049000
20
-9.185000
30
-22.174000
70
192
0
VERTEX
8
OBJECT__3
10
8.049000
20
-22.843000
30
-5.824000
70
192
0
VERTEX
8
OBJECT__3
10
8.049000
20
-20.892000
30
-11.104000
70
192
0
VERTEX
8
OBJECT__3
10
8.049000
20
-22.174000
30
-9.185000
70
192
0
VERTEX
8
OBJECT__3
10
8.049000
20
-9.185000
30
22.174000
70
192
0
VERTEX
8
OBJECT__3
10
8.049000
20
-14.164000
30
18.847000
70
192
0
VERTEX
8
OBJECT__3
10
8.049000
20
-20.892000
30
11.104000
70
192
0
VERTEX
8
OBJECT__3
10
8.049000
20
-17.864000
30
15.635000
70
192
0
VERTEX
8
OBJECT__3
10
8.049000
20
-22.174000
30
9.185000
70
192
0
VERTEX
8
OBJECT__3
10
8.049000
20
-22.843000
30
5.824000
70
192
0
VERTEX
8
OBJECT__3
10
8.049000
20
-16.971001
30
16.971001
70
192
0
VERTEX
8
OBJECT__3
10
8.049000
20
-6.649000
30
22.679001
70
192
0
VERTEX
8
OBJECT__3
10
8.049000
20
0.000000
30
24.000999
70
192
0
VERTEX
8
OBJECT__3
10
8.049000
20
-17.864000
30
-15.635000
70
192
0
VERTEX
8
OBJECT__3
10
7.000000
20
18.208000
30
-16.035000
70
192
0
VERTEX
8
OBJECT__3
10
8.049000
20
6.646000
30
-22.679001
70
192
0
VERTEX
8
OBJECT__3
10
0
20
0
30
0
70
128
71
1
72
2
73
3
0
VERTEX
8
OBJECT__3
10
0
20
0
30
0
70
128
71
2
72
4
73
5
0
VERTEX
8
OBJECT__3
10
0
20
0
30
0
70
128
71
5
72
3
73
2
0
VERTEX
8
OBJECT__3
10
0
20
0
30
0
70
128
71
6
72
7
73
8
0
VERTEX
8
OBJECT__3
10
0
20
0
30
0
70
128
71
9
72
10
73
7
0
VERTEX
8
OBJECT__3
10
0
20
0
30
0
70
128
71
11
72
12
73
13
0
VERTEX
8
OBJECT__3
10
0
20
0
30
0
70
128
71
14
72
15
73
16
0
VERTEX
8
OBJECT__3
10
0
20
0
30
0
70
128
71
16
72
17
73
14
0
VERTEX
8
OBJECT__3
10
0
20
0
30
0
70
128
71
15
72
14
73
18
0
VERTEX
8
OBJECT__3
10
0
20
0
30
0
70
128
71
2
72
1
73
19
0
VERTEX
8
OBJECT__3
10
0
20
0
30
0
70
128
71
19
72
18
73
2
0
VERTEX
8
OBJECT__3
10
0
20
0
30
0
70
128
71
20
72
21
73
22
0
VERTEX
8
OBJECT__3
10
0
20
0
30
0
70
128
71
22
72
23
73
20
0
VERTEX
8
OBJECT__3
10
0
20
0
30
0
70
128
71
20
72
17
73
24
0
VERTEX
8
OBJECT__3
10
0
20
0
30
0
70
128
71
23
72
25
73
13
0
VERTEX
8
OBJECT__3
10
0
20
0
30
0
70
128
71
26
72
27
73
28
0
VERTEX
8
OBJECT__3
10
0
20
0
30
0
70
128
71
29
72
28
73
27
0
VERTEX
8
OBJECT__3
10
0
20
0
30
0
70
128
71
27
72
30
73
29
0
VERTEX
8
OBJECT__3
10
0
20
0
30
0
70
128
71
31
72
32
73
33
0
VERTEX
8
OBJECT__3
10
0
20
0
30
0
70
128
71
31
72
11
73
34
0
VERTEX
8
OBJECT__3
10
0
20
0
30
0
70
128
71
11
72
35
73
34
0
VERTEX
8
OBJECT__3
10
0
20
0
30
0
70
128
71
30
72
36
73
37
0
VERTEX
8
OBJECT__3
10
0
20
0
30
0
70
128
71
36
72
33
73
37
0
VERTEX
8
OBJECT__3
10
0
20
0
30
0
70
128
71
8
72
7
73
26
0
VERTEX
8
OBJECT__3
10
0
20
0
30
0
70
128
71
38
72
39
73
12
0
VERTEX
8
OBJECT__3
10
0
20
0
30
0
70
128
71
17
72
40
73
41
0
VERTEX
8
OBJECT__3
10
0
20
0
30
0
70
128
71
41
72
14
73
17
0
VERTEX
8
OBJECT__3
10
0
20
0
30
0
70
128
71
42
72
4
73
18
0
VERTEX
8
OBJECT__3
10
0
20
0
30
0
70
128
71
18
72
14
73
42
0
VERTEX
8
OBJECT__3
10
0
20
0
30
0
70
128
71
4
72
2
73
18
0
VERTEX
8
OBJECT__3
10
0
20
0
30
0
70
128
71
20
72
23
73
43
0
VERTEX
8
OBJECT__3
10
0
20
0
30
0
70
128
71
23
72
44
73
43
0
VERTEX
8
OBJECT__3
10
0
20
0
30
0
70
128
71
45
72
40
73
17
0
VERTEX
8
OBJECT__3
10
0
20
0
30
0
70
128
71
44
72
23
73
12
0
VERTEX
8
OBJECT__3
10
0
20
0
30
0
70
128
71
46
72
30
73
27
0
VERTEX
8
OBJECT__3
10
0
20
0
30
0
70
128
71
27
72
47
73
46
0
VERTEX
8
OBJECT__3
10
0
20
0
30
0
70
128
71
48
72
31
73
36
0
VERTEX
8
OBJECT__3
10
0
20
0
30
0
70
128
71
31
72
48
73
49
0
VERTEX
8
OBJECT__3
10
0
20
0
30
0
70
128
71
49
72
11
73
31
0
VERTEX
8
OBJECT__3
10
0
20
0
30
0
70
128
71
36
72
30
73
50
0
VERTEX
8
OBJECT__3
10
0
20
0
30
0
70
128
71
30
72
46
73
50
0
VERTEX
8
OBJECT__3
10
0
20
0
30
0
70
128
71
26
72
7
73
51
0
VERTEX
8
OBJECT__3
10
0
20
0
30
0
70
128
71
7
72
10
73
51
0
VERTEX
8
OBJECT__3
10
0
20
0
30
0
70
128
71
52
72
53
73
54
0
VERTEX
8
OBJECT__3
10
0
20
0
30
0
70
128
71
55
72
56
73
57
0
VERTEX
8
OBJECT__3
10
0
20
0
30
0
70
128
71
56
72
58
73
57
0
VERTEX
8
OBJECT__3
10
0
20
0
30
0
70
128
71
56
72
59
73
60
0
VERTEX
8
OBJECT__3
10
0
20
0
30
0
70
128
71
6
72
60
73
59
0
VERTEX
8
OBJECT__3
10
0
20
0
30
0
70
128
71
59
72
9
73
6
0
VERTEX
8
OBJECT__3
10
0
20
0
30
0
70
128
71
61
72
62
73
63
0
VERTEX
8
OBJECT__3
10
0
20
0
30
0
70
128
71
62
72
64
73
63
0
VERTEX
8
OBJECT__3
10
0
20
0
30
0
70
128
71
65
72
64
73
66
0
VERTEX
8
OBJECT__3
10
0
20
0
30
0
70
128
71
64
72
62
73
66
0
VERTEX
8
OBJECT__3
10
0
20
0
30
0
70
128
71
61
72
67
73
54
0
VERTEX
8
OBJECT__3
10
0
20
0
30
0
70
128
71
68
72
69
73
70
0
VERTEX
8
OBJECT__3
10
0
20
0
30
0
70
128
71
71
72
72
73
73
0
VERTEX
8
OBJECT__3
10
0
20
0
30
0
70
128
71
73
72
70
73
71
0
VERTEX
8
OBJECT__3
10
0
20
0
30
0
70
128
71
74
72
75
73
76
0
VERTEX
8
OBJECT__3
10
0
20
0
30
0
70
128
71
76
72
77
73
74
0
VERTEX
8
OBJECT__3
10
0
20
0
30
0
70
128
71
52
72
78
73
79
0
VERTEX
8
OBJECT__3
10
0
20
0
30
0
70
128
71
79
72
80
73
52
0
VERTEX
8
OBJECT__3
10
0
20
0
30
0
70
128
71
75
72
74
73
81
0
VERTEX
8
OBJECT__3
10
0
20
0
30
0
70
128
71
81
72
71
73
75
0
VERTEX
8
OBJECT__3
10
0
20
0
30
0
70
128
71
82
72
69
73
68
0
VERTEX
8
OBJECT__3
10
0
20
0
30
0
70
128
71
78
72
54
73
83
0
VERTEX
8
OBJECT__3
10
0
20
0
30
0
70
128
71
65
72
57
73
84
0
VERTEX
8
OBJECT__3
10
0
20
0
30
0
70
128
71
85
72
84
73
57
0
VERTEX
8
OBJECT__3
10
0
20
0
30
0
70
128
71
57
72
58
73
85
0
VERTEX
8
OBJECT__3
10
0
20
0
30
0
70
128
71
85
72
58
73
60
0
VERTEX
8
OBJECT__3
10
0
20
0
30
0
70
128
71
6
72
86
73
87
0
VERTEX
8
OBJECT__3
10
0
20
0
30
0
70
128
71
87
72
60
73
6
0
VERTEX
8
OBJECT__3
10
0
20
0
30
0
70
128
71
88
72
67
73
63
0
VERTEX
8
OBJECT__3
10
0
20
0
30
0
70
128
71
64
72
89
73
90
0
VERTEX
8
OBJECT__3
10
0
20
0
30
0
70
128
71
90
72
63
73
64
0
VERTEX
8
OBJECT__3
10
0
20
0
30
0
70
128
71
89
72
64
73
65
0
VERTEX
8
OBJECT__3
10
0
20
0
30
0
70
128
71
67
72
88
73
83
0
VERTEX
8
OBJECT__3
10
0
20
0
30
0
70
128
71
68
72
73
73
91
0
VERTEX
8
OBJECT__3
10
0
20
0
30
0
70
128
71
92
72
91
73
73
0
VERTEX
8
OBJECT__3
10
0
20
0
30
0
70
128
71
73
72
72
73
92
0
VERTEX
8
OBJECT__3
10
0
20
0
30
0
70
128
71
93
72
94
73
74
0
VERTEX
8
OBJECT__3
10
0
20
0
30
0
70
128
71
77
72
79
73
95
0
VERTEX
8
OBJECT__3
10
0
20
0
30
0
70
128
71
96
72
95
73
79
0
VERTEX
8
OBJECT__3
10
0
20
0
30
0
70
128
71
79
72
78
73
96
0
VERTEX
8
OBJECT__3
10
0
20
0
30
0
70
128
71
92
72
72
73
81
0
VERTEX
8
OBJECT__3
10
0
20
0
30
0
70
128
71
74
72
94
73
97
0
VERTEX
8
OBJECT__3
10
0
20
0
30
0
70
128
71
97
72
81
73
74
0
VERTEX
8
OBJECT__3
10
0
20
0
30
0
70
128
71
68
72
98
73
99
0
VERTEX
8
OBJECT__3
10
0
20
0
30
0
70
128
71
99
72
3
73
68
0
VERTEX
8
OBJECT__3
10
0
20
0
30
0
70
128
71
81
72
97
73
92
0
VERTEX
8
OBJECT__3
10
0
20
0
30
0
70
128
71
95
72
93
73
77
0
VERTEX
8
OBJECT__3
10
0
20
0
30
0
70
128
71
74
72
77
73
93
0
VERTEX
8
OBJECT__3
10
0
20
0
30
0
70
128
71
91
72
98
73
68
0
VERTEX
8
OBJECT__3
10
0
20
0
30
0
70
128
71
83
72
54
73
67
0
VERTEX
8
OBJECT__3
10
0
20
0
30
0
70
128
71
65
72
100
73
89
0
VERTEX
8
OBJECT__3
10
0
20
0
30
0
70
128
71
63
72
90
73
88
0
VERTEX
8
OBJECT__3
10
0
20
0
30
0
70
128
71
60
72
87
73
85
0
VERTEX
8
OBJECT__3
10
0
20
0
30
0
70
128
71
84
72
100
73
65
0
VERTEX
8
OBJECT__3
10
0
20
0
30
0
70
128
71
83
72
96
73
78
0
VERTEX
8
OBJECT__3
10
0
20
0
30
0
70
128
71
68
72
3
73
82
0
VERTEX
8
OBJECT__3
10
0
20
0
30
0
70
128
71
81
72
72
73
71
0
VERTEX
8
OBJECT__3
10
0
20
0
30
0
70
128
71
79
72
77
73
80
0
VERTEX
8
OBJECT__3
10
0
20
0
30
0
70
128
71
76
72
80
73
77
0
VERTEX
8
OBJECT__3
10
0
20
0
30
0
70
128
71
70
72
73
73
68
0
VERTEX
8
OBJECT__3
10
0
20
0
30
0
70
128
71
54
72
53
73
61
0
VERTEX
8
OBJECT__3
10
0
20
0
30
0
70
128
71
66
72
55
73
65
0
VERTEX
8
OBJECT__3
10
0
20
0
30
0
70
128
71
63
72
67
73
61
0
VERTEX
8
OBJECT__3
10
0
20
0
30
0
70
128
71
60
72
58
73
56
0
VERTEX
8
OBJECT__3
10
0
20
0
30
0
70
128
71
57
72
65
73
55
0
VERTEX
8
OBJECT__3
10
0
20
0
30
0
70
128
71
54
72
78
73
52
0
VERTEX
8
OBJECT__3
10
0
20
0
30
0
70
128
71
51
72
47
73
26
0
VERTEX
8
OBJECT__3
10
0
20
0
30
0
70
128
71
50
72
101
73
36
0
VERTEX
8
OBJECT__3
10
0
20
0
30
0
70
128
71
49
72
38
73
11
0
VERTEX
8
OBJECT__3
10
0
20
0
30
0
70
128
71
36
72
101
73
48
0
VERTEX
8
OBJECT__3
10
0
20
0
30
0
70
128
71
27
72
26
73
47
0
VERTEX
8
OBJECT__3
10
0
20
0
30
0
70
128
71
12
72
39
73
44
0
VERTEX
8
OBJECT__3
10
0
20
0
30
0
70
128
71
17
72
20
73
45
0
VERTEX
8
OBJECT__3
10
0
20
0
30
0
70
128
71
43
72
45
73
20
0
VERTEX
8
OBJECT__3
10
0
20
0
30
0
70
128
71
41
72
42
73
14
0
VERTEX
8
OBJECT__3
10
0
20
0
30
0
70
128
71
12
72
11
73
38
0
VERTEX
8
OBJECT__3
10
0
20
0
30
0
70
128
71
26
72
102
73
8
0
VERTEX
8
OBJECT__3
10
0
20
0
30
0
70
128
71
37
72
29
73
30
0
VERTEX
8
OBJECT__3
10
0
20
0
30
0
70
128
71
34
72
32
73
31
0
VERTEX
8
OBJECT__3
10
0
20
0
30
0
70
128
71
33
72
36
73
31
0
VERTEX
8
OBJECT__3
10
0
20
0
30
0
70
128
71
28
72
102
73
26
0
VERTEX
8
OBJECT__3
10
0
20
0
30
0
70
128
71
13
72
12
73
23
0
VERTEX
8
OBJECT__3
10
0
20
0
30
0
70
128
71
24
72
21
73
20
0
VERTEX
8
OBJECT__3
10
0
20
0
30
0
70
128
71
22
72
25
73
23
0
VERTEX
8
OBJECT__3
10
0
20
0
30
0
70
128
71
18
72
19
73
15
0
VERTEX
8
OBJECT__3
10
0
20
0
30
0
70
128
71
16
72
24
73
17
0
VERTEX
8
OBJECT__3
10
0
20
0
30
0
70
128
71
13
72
35
73
11
0
VERTEX
8
OBJECT__3
10
0
20
0
30
0
70
128
71
7
72
6
73
9
0
VERTEX
8
OBJECT__3
10
0
20
0
30
0
70
128
71
8
72
86
73
6
0
VERTEX
8
OBJECT__3
10
0
20
0
30
0
70
128
71
5
72
82
73
3
0
VERTEX
8
OBJECT__3
10
0
20
0
30
0
70
128
71
3
72
99
73
1
0
SEQEND
8
OBJECT__3
0
POLYLINE
8
OBJECT__4
66
1
70
64
71
52
72
52
62
253
0
VERTEX
8
OBJECT__4
10
8.049000
20
-6.646000
30
-22.679001
70
192
0
VERTEX
8
OBJECT__4
10
8.049000
20
0.000000
30
-24.000999
70
192
0
VERTEX
8
OBJECT__4
10
8.513000
20
0.000000
30
-10.600000
70
192
0
VERTEX
8
OBJECT__4
10
8.513000
20
-4.056000
30
-9.793000
70
192
0
VERTEX
8
OBJECT__4
10
8.049000
20
-9.185000
30
-22.174000
70
192
0
VERTEX
8
OBJECT__4
10
8.049000
20
-14.164000
30
-18.847000
70
192
0
VERTEX
8
OBJECT__4
10
8.513000
20
-7.495000
30
-7.495000
70
192
0
VERTEX
8
OBJECT__4
10
8.049000
20
-16.971001
30
-16.971001
70
192
0
VERTEX
8
OBJECT__4
10
8.049000
20
-20.892000
30
-11.104000
70
192
0
VERTEX
8
OBJECT__4
10
8.049000
20
-17.864000
30
-15.635000
70
192
0
VERTEX
8
OBJECT__4
10
8.513000
20
-9.793000
30
-4.056000
70
192
0
VERTEX
8
OBJECT__4
10
8.049000
20
-22.174000
30
-9.185000
70
192
0
VERTEX
8
OBJECT__4
10
8.049000
20
-22.843000
30
-5.824000
70
192
0
VERTEX
8
OBJECT__4
10
8.513000
20
-10.600000
30
0.000000
70
192
0
VERTEX
8
OBJECT__4
10
8.049000
20
-24.000999
30
0.000000
70
192
0
VERTEX
8
OBJECT__4
10
8.049000
20
-22.843000
30
5.824000
70
192
0
VERTEX
8
OBJECT__4
10
8.513000
20
-9.793000
30
4.056000
70
192
0
VERTEX
8
OBJECT__4
10
8.049000
20
-22.174000
30
9.185000
70
192
0
VERTEX
8
OBJECT__4
10
8.049000
20
-20.892000
30
11.104000
70
192
0
VERTEX
8
OBJECT__4
10
8.513000
20
-7.495000
30
7.495000
70
192
0
VERTEX
8
OBJECT__4
10
8.049000
20
-16.971001
30
16.971001
70
192
0
VERTEX
8
OBJECT__4
10
8.049000
20
-17.864000
30
15.635000
70
192
0
VERTEX
8
OBJECT__4
10
8.049000
20
-14.164000
30
18.847000
70
192
0
VERTEX
8
OBJECT__4
10
8.513000
20
-4.056000
30
9.793000
70
192
0
VERTEX
8
OBJECT__4
10
8.049000
20
-9.185000
30
22.174000
70
192
0
VERTEX
8
OBJECT__4
10
8.049000
20
-6.649000
30
22.679001
70
192
0
VERTEX
8
OBJECT__4
10
8.513000
20
0.000000
30
10.600000
70
192
0
VERTEX
8
OBJECT__4
10
8.049000
20
0.000000
30
24.000999
70
192
0
VERTEX
8
OBJECT__4
10
8.049000
20
6.649000
30
22.679001
70
192
0
VERTEX
8
OBJECT__4
10
8.513000
20
4.056000
30
9.793000
70
192
0
VERTEX
8
OBJECT__4
10
8.049000
20
9.185000
30
22.174000
70
192
0
VERTEX
8
OBJECT__4
10
8.049000
20
14.164000
30
18.847000
70
192
0
VERTEX
8
OBJECT__4
10
8.513000
20
7.495000
30
7.495000
70
192
0
VERTEX
8
OBJECT__4
10
8.049000
20
16.971001
30
16.971001
70
192
0
VERTEX
8
OBJECT__4
10
8.049000
20
20.892000
30
11.104000
70
192
0
VERTEX
8
OBJECT__4
10
8.049000
20
17.864000
30
15.635000
70
192
0
VERTEX
8
OBJECT__4
10
8.513000
20
9.793000
30
4.056000
70
192
0
VERTEX
8
OBJECT__4
10
8.049000
20
22.174000
30
9.185000
70
192
0
VERTEX
8
OBJECT__4
10
8.049000
20
22.843000
30
5.824000
70
192
0
VERTEX
8
OBJECT__4
10
8.513000
20
10.600000
30
0.000000
70
192
0
VERTEX
8
OBJECT__4
10
8.049000
20
24.000999
30
0.000000
70
192
0
VERTEX
8
OBJECT__4
10
8.049000
20
22.843000
30
-5.824000
70
192
0
VERTEX
8
OBJECT__4
10
8.513000
20
9.793000
30
-4.056000
70
192
0
VERTEX
8
OBJECT__4
10
8.049000
20
22.174000
30
-9.185000
70
192
0
VERTEX
8
OBJECT__4
10
8.049000
20
20.892000
30
-11.104000
70
192
0
VERTEX
8
OBJECT__4
10
8.513000
20
7.495000
30
-7.495000
70
192
0
VERTEX
8
OBJECT__4
10
8.049000
20
16.971001
30
-16.971001
70
192
0
VERTEX
8
OBJECT__4
10
8.049000
20
17.864000
30
-15.635000
70
192
0
VERTEX
8
OBJECT__4
10
8.049000
20
14.164000
30
-18.847000
70
192
0
VERTEX
8
OBJECT__4
10
8.513000
20
4.056000
30
-9.793000
70
192
0
VERTEX
8
OBJECT__4
10
8.049000
20
9.185000
30
-22.174000
70
192
0
VERTEX
8
OBJECT__4
10
8.049000
20
6.646000
30
-22.679001
70
192
0
VERTEX
8
OBJECT__4
10
0
20
0
30
0
70
128
71
1
72
2
73
3
0
VERTEX
8
OBJECT__4
10
0
20
0
30
0
70
128
71
4
72
5
73
1
0
VERTEX
8
OBJECT__4
10
0
20
0
30
0
70
128
71
6
72
5
73
4
0
VERTEX
8
OBJECT__4
10
0
20
0
30
0
70
128
71
7
72
8
73
6
0
VERTEX
8
OBJECT__4
10
0
20
0
30
0
70
128
71
9
72
10
73
7
0
VERTEX
8
OBJECT__4
10
0
20
0
30
0
70
128
71
7
72
11
73
9
0
VERTEX
8
OBJECT__4
10
0
20
0
30
0
70
128
71
11
72
12
73
9
0
VERTEX
8
OBJECT__4
10
0
20
0
30
0
70
128
71
13
72
11
73
14
0
VERTEX
8
OBJECT__4
10
0
20
0
30
0
70
128
71
14
72
15
73
13
0
VERTEX
8
OBJECT__4
10
0
20
0
30
0
70
128
71
16
72
15
73
14
0
VERTEX
8
OBJECT__4
10
0
20
0
30
0
70
128
71
17
72
18
73
16
0
VERTEX
8
OBJECT__4
10
0
20
0
30
0
70
128
71
19
72
17
73
20
0
VERTEX
8
OBJECT__4
10
0
20
0
30
0
70
128
71
20
72
21
73
22
0
VERTEX
8
OBJECT__4
10
0
20
0
30
0
70
128
71
20
72
22
73
19
0
VERTEX
8
OBJECT__4
10
0
20
0
30
0
70
128
71
23
72
20
73
24
0
VERTEX
8
OBJECT__4
10
0
20
0
30
0
70
128
71
24
72
25
73
23
0
VERTEX
8
OBJECT__4
10
0
20
0
30
0
70
128
71
26
72
24
73
27
0
VERTEX
8
OBJECT__4
10
0
20
0
30
0
70
128
71
27
72
28
73
26
0
VERTEX
8
OBJECT__4
10
0
20
0
30
0
70
128
71
29
72
28
73
27
0
VERTEX
8
OBJECT__4
10
0
20
0
30
0
70
128
71
30
72
31
73
29
0
VERTEX
8
OBJECT__4
10
0
20
0
30
0
70
128
71
32
72
31
73
30
0
VERTEX
8
OBJECT__4
10
0
20
0
30
0
70
128
71
33
72
34
73
32
0
VERTEX
8
OBJECT__4
10
0
20
0
30
0
70
128
71
35
72
36
73
33
0
VERTEX
8
OBJECT__4
10
0
20
0
30
0
70
128
71
33
72
37
73
35
0
VERTEX
8
OBJECT__4
10
0
20
0
30
0
70
128
71
37
72
38
73
35
0
VERTEX
8
OBJECT__4
10
0
20
0
30
0
70
128
71
39
72
37
73
40
0
VERTEX
8
OBJECT__4
10
0
20
0
30
0
70
128
71
40
72
41
73
39
0
VERTEX
8
OBJECT__4
10
0
20
0
30
0
70
128
71
42
72
41
73
40
0
VERTEX
8
OBJECT__4
10
0
20
0
30
0
70
128
71
43
72
44
73
42
0
VERTEX
8
OBJECT__4
10
0
20
0
30
0
70
128
71
45
72
43
73
46
0
VERTEX
8
OBJECT__4
10
0
20
0
30
0
70
128
71
46
72
47
73
48
0
VERTEX
8
OBJECT__4
10
0
20
0
30
0
70
128
71
46
72
48
73
45
0
VERTEX
8
OBJECT__4
10
0
20
0
30
0
70
128
71
49
72
46
73
50
0
VERTEX
8
OBJECT__4
10
0
20
0
30
0
70
128
71
50
72
51
73
49
0
VERTEX
8
OBJECT__4
10
0
20
0
30
0
70
128
71
52
72
50
73
3
0
VERTEX
8
OBJECT__4
10
0
20
0
30
0
70
128
71
3
72
2
73
52
0
VERTEX
8
OBJECT__4
10
0
20
0
30
0
70
128
71
52
72
51
73
50
0
VERTEX
8
OBJECT__4
10
0
20
0
30
0
70
128
71
49
72
47
73
46
0
VERTEX
8
OBJECT__4
10
0
20
0
30
0
70
128
71
45
72
44
73
43
0
VERTEX
8
OBJECT__4
10
0
20
0
30
0
70
128
71
40
72
43
73
42
0
VERTEX
8
OBJECT__4
10
0
20
0
30
0
70
128
71
39
72
38
73
37
0
VERTEX
8
OBJECT__4
10
0
20
0
30
0
70
128
71
36
72
34
73
33
0
VERTEX
8
OBJECT__4
10
0
20
0
30
0
70
128
71
30
72
33
73
32
0
VERTEX
8
OBJECT__4
10
0
20
0
30
0
70
128
71
27
72
30
73
29
0
VERTEX
8
OBJECT__4
10
0
20
0
30
0
70
128
71
26
72
25
73
24
0
VERTEX
8
OBJECT__4
10
0
20
0
30
0
70
128
71
23
72
21
73
20
0
VERTEX
8
OBJECT__4
10
0
20
0
30
0
70
128
71
19
72
18
73
17
0
VERTEX
8
OBJECT__4
10
0
20
0
30
0
70
128
71
14
72
17
73
16
0
VERTEX
8
OBJECT__4
10
0
20
0
30
0
70
128
71
13
72
12
73
11
0
VERTEX
8
OBJECT__4
10
0
20
0
30
0
70
128
71
10
72
8
73
7
0
VERTEX
8
OBJECT__4
10
0
20
0
30
0
70
128
71
4
72
7
73
6
0
VERTEX
8
OBJECT__4
10
0
20
0
30
0
70
128
71
3
72
4
73
1
0
SEQEND
8
OBJECT__4
0
POLYLINE
8
OBJECT__5
66
1
70
64
71
28
72
26
62
253
0
VERTEX
8
OBJECT__5
10
67.041000
20
11.956000
30
-10.530000
70
192
0
VERTEX
8
OBJECT__5
10
67.041000
20
10.178000
30
-12.135000
70
192
0
VERTEX
8
OBJECT__5
10
67.114998
20
9.250000
30
-9.730000
70
192
0
VERTEX
8
OBJECT__5
10
67.140999
20
9.250000
30
-8.224000
70
192
0
VERTEX
8
OBJECT__5
10
67.041000
20
13.743000
30
-7.928000
70
192
0
VERTEX
8
OBJECT__5
10
67.163002
20
9.250000
30
-6.892000
70
192
0
VERTEX
8
OBJECT__5
10
67.180000
20
9.250000
30
-4.988000
70
192
0
VERTEX
8
OBJECT__5
10
67.041000
20
14.122000
30
-7.377000
70
192
0
VERTEX
8
OBJECT__5
10
67.041000
20
15.473000
30
-3.798000
70
192
0
VERTEX
8
OBJECT__5
10
67.041000
20
15.599000
30
-2.756000
70
192
0
VERTEX
8
OBJECT__5
10
67.204002
20
9.250000
30
-2.293000
70
192
0
VERTEX
8
OBJECT__5
10
67.041000
20
15.932000
30
0.000000
70
192
0
VERTEX
8
OBJECT__5
10
67.207001
20
9.250000
30
-1.926000
70
192
0
VERTEX
8
OBJECT__5
10
67.207001
20
9.250000
30
0.000000
70
192
0
VERTEX
8
OBJECT__5
10
67.207001
20
9.250000
30
1.799000
70
192
0
VERTEX
8
OBJECT__5
10
67.041000
20
15.599000
30
2.756000
70
192
0
VERTEX
8
OBJECT__5
10
67.204002
20
9.250000
30
2.285000
70
192
0
VERTEX
8
OBJECT__5
10
67.041000
20
15.473000
30
3.798000
70
192
0
VERTEX
8
OBJECT__5
10
67.189003
20
9.250000
30
4.593000
70
192
0
VERTEX
8
OBJECT__5
10
67.185997
20
9.250000
30
4.859000
70
192
0
VERTEX
8
OBJECT__5
10
67.041000
20
13.743000
30
7.928000
70
192
0
VERTEX
8
OBJECT__5
10
67.139999
20
9.250000
30
8.230000
70
192
0
VERTEX
8
OBJECT__5
10
67.041000
20
11.956000
30
10.530000
70
192
0
VERTEX
8
OBJECT__5
10
67.133003
20
9.250000
30
8.783000
70
192
0
VERTEX
8
OBJECT__5
10
67.041000
20
9.250000
30
12.972000
70
192
0
VERTEX
8
OBJECT__5
10
67.041000
20
10.178000
30
12.135000
70
192
0
VERTEX
8
OBJECT__5
10
67.041000
20
14.122000
30
7.377000
70
192
0
VERTEX
8
OBJECT__5
10
67.041000
20
9.250000
30
-12.972000
70
192
0
VERTEX
8
OBJECT__5
10
0
20
0
30
0
70
128
71
1
72
2
73
3
0
VERTEX
8
OBJECT__5
10
0
20
0
30
0
70
128
71
3
72
4
73
1
0
VERTEX
8
OBJECT__5
10
0
20
0
30
0
70
128
71
5
72
1
73
4
0
VERTEX
8
OBJECT__5
10
0
20
0
30
0
70
128
71
4
72
6
73
5
0
VERTEX
8
OBJECT__5
10
0
20
0
30
0
70
128
71
7
72
8
73
5
0
VERTEX
8
OBJECT__5
10
0
20
0
30
0
70
128
71
9
72
8
73
7
0
VERTEX
8
OBJECT__5
10
0
20
0
30
0
70
128
71
10
72
9
73
11
0
VERTEX
8
OBJECT__5
10
0
20
0
30
0
70
128
71
12
72
10
73
13
0
VERTEX
8
OBJECT__5
10
0
20
0
30
0
70
128
71
13
72
14
73
12
0
VERTEX
8
OBJECT__5
10
0
20
0
30
0
70
128
71
12
72
14
73
15
0
VERTEX
8
OBJECT__5
10
0
20
0
30
0
70
128
71
16
72
15
73
17
0
VERTEX
8
OBJECT__5
10
0
20
0
30
0
70
128
71
17
72
18
73
16
0
VERTEX
8
OBJECT__5
10
0
20
0
30
0
70
128
71
18
72
19
73
20
0
VERTEX
8
OBJECT__5
10
0
20
0
30
0
70
128
71
18
72
17
73
19
0
VERTEX
8
OBJECT__5
10
0
20
0
30
0
70
128
71
21
72
20
73
22
0
VERTEX
8
OBJECT__5
10
0
20
0
30
0
70
128
71
22
72
23
73
21
0
VERTEX
8
OBJECT__5
10
0
20
0
30
0
70
128
71
23
72
22
73
24
0
VERTEX
8
OBJECT__5
10
0
20
0
30
0
70
128
71
24
72
25
73
26
0
VERTEX
8
OBJECT__5
10
0
20
0
30
0
70
128
71
24
72
26
73
23
0
VERTEX
8
OBJECT__5
10
0
20
0
30
0
70
128
71
21
72
27
73
20
0
VERTEX
8
OBJECT__5
10
0
20
0
30
0
70
128
71
20
72
27
73
18
0
VERTEX
8
OBJECT__5
10
0
20
0
30
0
70
128
71
15
72
16
73
12
0
VERTEX
8
OBJECT__5
10
0
20
0
30
0
70
128
71
11
72
13
73
10
0
VERTEX
8
OBJECT__5
10
0
20
0
30
0
70
128
71
7
72
11
73
9
0
VERTEX
8
OBJECT__5
10
0
20
0
30
0
70
128
71
6
72
7
73
5
0
VERTEX
8
OBJECT__5
10
0
20
0
30
0
70
128
71
2
72
28
73
3
0
SEQEND
8
OBJECT__5
0
POLYLINE
8
OBJECT__6
66
1
70
64
71
150
72
150
62
253
0
VERTEX
8
OBJECT__6
10
11.596000
20
-14.217000
30
-8.208000
70
192
0
VERTEX
8
OBJECT__6
10
11.596000
20
-16.167000
30
-2.851000
70
192
0
VERTEX
8
OBJECT__6
10
67.041000
20
-15.473000
30
-3.798000
70
192
0
VERTEX
8
OBJECT__6
10
67.041000
20
-15.599000
30
-2.756000
70
192
0
VERTEX
8
OBJECT__6
10
67.041000
20
-14.122000
30
-7.377000
70
192
0
VERTEX
8
OBJECT__6
10
11.596000
20
-16.167000
30
2.851000
70
192
0
VERTEX
8
OBJECT__6
10
67.041000
20
-15.932000
30
0.000000
70
192
0
VERTEX
8
OBJECT__6
10
67.041000
20
-15.599000
30
2.756000
70
192
0
VERTEX
8
OBJECT__6
10
11.596000
20
-14.217000
30
8.208000
70
192
0
VERTEX
8
OBJECT__6
10
67.041000
20
-14.122000
30
7.377000
70
192
0
VERTEX
8
OBJECT__6
10
67.041000
20
-15.473000
30
3.798000
70
192
0
VERTEX
8
OBJECT__6
10
67.041000
20
-13.743000
30
7.928000
70
192
0
VERTEX
8
OBJECT__6
10
11.596000
20
14.217000
30
8.208000
70
192
0
VERTEX
8
OBJECT__6
10
11.596000
20
16.167000
30
2.851000
70
192
0
VERTEX
8
OBJECT__6
10
67.041000
20
15.473000
30
3.798000
70
192
0
VERTEX
8
OBJECT__6
10
67.041000
20
15.599000
30
2.756000
70
192
0
VERTEX
8
OBJECT__6
10
67.041000
20
14.122000
30
7.377000
70
192
0
VERTEX
8
OBJECT__6
10
11.596000
20
16.167000
30
-2.851000
70
192
0
VERTEX
8
OBJECT__6
10
67.041000
20
15.932000
30
0.000000
70
192
0
VERTEX
8
OBJECT__6
10
67.041000
20
15.599000
30
-2.756000
70
192
0
VERTEX
8
OBJECT__6
10
11.596000
20
14.217000
30
-8.208000
70
192
0
VERTEX
8
OBJECT__6
10
67.041000
20
14.122000
30
-7.377000
70
192
0
VERTEX
8
OBJECT__6
10
67.041000
20
15.473000
30
-3.798000
70
192
0
VERTEX
8
OBJECT__6
10
67.041000
20
13.743000
30
-7.928000
70
192
0
VERTEX
8
OBJECT__6
10
67.041000
20
10.178000
30
12.135000
70
192
0
VERTEX
8
OBJECT__6
10
67.041000
20
9.250000
30
12.972000
70
192
0
VERTEX
8
OBJECT__6
10
63.408001
20
9.250000
30
13.011000
70
192
0
VERTEX
8
OBJECT__6
10
48.105000
20
10.427000
30
12.265000
70
192
0
VERTEX
8
OBJECT__6
10
48.000999
20
10.345000
30
12.329000
70
192
0
VERTEX
8
OBJECT__6
10
49.589001
20
11.268000
30
11.478000
70
192
0
VERTEX
8
OBJECT__6
10
51.151001
20
11.893000
30
10.809000
70
192
0
VERTEX
8
OBJECT__6
10
49.950001
20
11.413000
30
11.324000
70
192
0
VERTEX
8
OBJECT__6
10
51.618000
20
12.034000
30
10.646000
70
192
0
VERTEX
8
OBJECT__6
10
53.094002
20
12.354000
30
10.253000
70
192
0
VERTEX
8
OBJECT__6
10
54.400002
20
12.486000
30
10.074000
70
192
0
VERTEX
8
OBJECT__6
10
67.041000
20
13.743000
30
7.928000
70
192
0
VERTEX
8
OBJECT__6
10
54.603001
20
12.483000
30
10.074000
70
192
0
VERTEX
8
OBJECT__6
10
55.907001
20
12.467000
30
10.076000
70
192
0
VERTEX
8
OBJECT__6
10
60.445000
20
11.252000
30
11.361000
70
192
0
VERTEX
8
OBJECT__6
10
59.313000
20
11.708000
30
10.897000
70
192
0
VERTEX
8
OBJECT__6
10
67.041000
20
11.956000
30
10.530000
70
192
0
VERTEX
8
OBJECT__6
10
62.119999
20
10.267000
30
12.236000
70
192
0
VERTEX
8
OBJECT__6
10
62.055000
20
10.319000
30
12.196000
70
192
0
VERTEX
8
OBJECT__6
10
58.875000
20
11.884000
30
10.718000
70
192
0
VERTEX
8
OBJECT__6
10
57.277000
20
12.291000
30
10.271000
70
192
0
VERTEX
8
OBJECT__6
10
11.596000
20
10.552000
30
12.576000
70
192
0
VERTEX
8
OBJECT__6
10
44.337002
20
6.523000
30
14.753000
70
192
0
VERTEX
8
OBJECT__6
10
43.813000
20
5.511000
30
15.143000
70
192
0
VERTEX
8
OBJECT__6
10
45.247002
20
7.819000
30
14.100000
70
192
0
VERTEX
8
OBJECT__6
10
46.522999
20
9.187000
30
13.236000
70
192
0
VERTEX
8
OBJECT__6
10
46.046001
20
8.675000
30
13.559000
70
192
0
VERTEX
8
OBJECT__6
10
11.596000
20
0.000000
30
16.416000
70
192
0
VERTEX
8
OBJECT__6
10
11.596000
20
5.615000
30
15.426000
70
192
0
VERTEX
8
OBJECT__6
10
42.603001
20
1.599000
30
16.066000
70
192
0
VERTEX
8
OBJECT__6
10
42.993999
20
3.479000
30
15.763000
70
192
0
VERTEX
8
OBJECT__6
10
42.632000
20
1.813000
30
16.042999
70
192
0
VERTEX
8
OBJECT__6
10
43.519001
20
4.944000
30
15.362000
70
192
0
VERTEX
8
OBJECT__6
10
43.426998
20
4.687000
30
15.432000
70
192
0
VERTEX
8
OBJECT__6
10
11.596000
20
-5.615000
30
15.426000
70
192
0
VERTEX
8
OBJECT__6
10
43.002998
20
-3.510000
30
15.756000
70
192
0
VERTEX
8
OBJECT__6
10
43.433998
20
-4.684000
30
15.427000
70
192
0
VERTEX
8
OBJECT__6
10
43.578999
20
-5.081000
30
15.316000
70
192
0
VERTEX
8
OBJECT__6
10
42.622002
20
-1.746000
30
16.051001
70
192
0
VERTEX
8
OBJECT__6
10
42.504002
20
0.000000
30
16.143000
70
192
0
VERTEX
8
OBJECT__6
10
42.500000
20
-0.068000
30
16.146000
70
192
0
VERTEX
8
OBJECT__6
10
11.596000
20
-10.552000
30
12.576000
70
192
0
VERTEX
8
OBJECT__6
10
45.076000
20
-7.600000
30
14.221000
70
192
0
VERTEX
8
OBJECT__6
10
46.035000
20
-8.686000
30
13.562000
70
192
0
VERTEX
8
OBJECT__6
10
46.233002
20
-8.910000
30
13.426000
70
192
0
VERTEX
8
OBJECT__6
10
46.789001
20
-9.425000
30
13.064000
70
192
0
VERTEX
8
OBJECT__6
10
43.798000
20
-5.515000
30
15.153000
70
192
0
VERTEX
8
OBJECT__6
10
44.118000
20
-6.150000
30
14.914000
70
192
0
VERTEX
8
OBJECT__6
10
67.041000
20
-11.956000
30
10.530000
70
192
0
VERTEX
8
OBJECT__6
10
61.299000
20
-10.797000
30
11.784000
70
192
0
VERTEX
8
OBJECT__6
10
62.085999
20
-10.261000
30
12.228000
70
192
0
VERTEX
8
OBJECT__6
10
67.041000
20
-10.178000
30
12.135000
70
192
0
VERTEX
8
OBJECT__6
10
58.748001
20
-11.925000
30
10.675000
70
192
0
VERTEX
8
OBJECT__6
10
59.317001
20
-11.718000
30
10.891000
70
192
0
VERTEX
8
OBJECT__6
10
59.775002
20
-11.552000
30
11.064000
70
192
0
VERTEX
8
OBJECT__6
10
57.276001
20
-12.291000
30
10.271000
70
192
0
VERTEX
8
OBJECT__6
10
55.976002
20
-12.462000
30
10.081000
70
192
0
VERTEX
8
OBJECT__6
10
54.470001
20
-12.489000
30
10.069000
70
192
0
VERTEX
8
OBJECT__6
10
54.603001
20
-12.486000
30
10.070000
70
192
0
VERTEX
8
OBJECT__6
10
49.935001
20
-11.428000
30
11.315000
70
192
0
VERTEX
8
OBJECT__6
10
49.943001
20
-11.431000
30
11.312000
70
192
0
VERTEX
8
OBJECT__6
10
48.015999
20
-10.342000
30
12.325000
70
192
0
VERTEX
8
OBJECT__6
10
48.291000
20
-10.547000
30
12.159000
70
192
0
VERTEX
8
OBJECT__6
10
51.486000
20
-11.996000
30
10.691000
70
192
0
VERTEX
8
OBJECT__6
10
53.081001
20
-12.352000
30
10.255000
70
192
0
VERTEX
8
OBJECT__6
10
62.735001
20
-9.819000
30
12.595000
70
192
0
VERTEX
8
OBJECT__6
10
63.408001
20
-9.250000
30
13.011000
70
192
0
VERTEX
8
OBJECT__6
10
67.041000
20
-10.178000
30
-12.135000
70
192
0
VERTEX
8
OBJECT__6
10
67.041000
20
-9.250000
30
-12.972000
70
192
0
VERTEX
8
OBJECT__6
10
60.176998
20
-9.250000
30
-13.046000
70
192
0
VERTEX
8
OBJECT__6
10
59.500000
20
-9.597000
30
-12.800000
70
192
0
VERTEX
8
OBJECT__6
10
57.980999
20
-10.172000
30
-12.365000
70
192
0
VERTEX
8
OBJECT__6
10
54.021000
20
-10.555000
30
-12.086000
70
192
0
VERTEX
8
OBJECT__6
10
52.610001
20
-10.322000
30
-12.301000
70
192
0
VERTEX
8
OBJECT__6
10
67.041000
20
-13.743000
30
-7.928000
70
192
0
VERTEX
8
OBJECT__6
10
55.270000
20
-10.597000
30
-12.035000
70
192
0
VERTEX
8
OBJECT__6
10
56.787998
20
-10.448000
30
-12.147000
70
192
0
VERTEX
8
OBJECT__6
10
55.992001
20
-10.526000
30
-12.088000
70
192
0
VERTEX
8
OBJECT__6
10
67.041000
20
-11.956000
30
-10.530000
70
192
0
VERTEX
8
OBJECT__6
10
57.452999
20
-10.294000
30
-12.268000
70
192
0
VERTEX
8
OBJECT__6
10
11.596000
20
-5.615000
30
-15.426000
70
192
0
VERTEX
8
OBJECT__6
10
46.929001
20
-6.872000
30
-14.569000
70
192
0
VERTEX
8
OBJECT__6
10
46.119999
20
-5.788000
30
-15.040000
70
192
0
VERTEX
8
OBJECT__6
10
48.155998
20
-8.094000
30
-13.914000
70
192
0
VERTEX
8
OBJECT__6
10
47.882000
20
-7.822000
30
-14.060000
70
192
0
VERTEX
8
OBJECT__6
10
49.549000
20
-9.091000
30
-13.269000
70
192
0
VERTEX
8
OBJECT__6
10
50.973000
20
-9.805000
30
-12.735000
70
192
0
VERTEX
8
OBJECT__6
10
52.536999
20
-10.310000
30
-12.312000
70
192
0
VERTEX
8
OBJECT__6
10
51.653000
20
-10.025000
30
-12.551000
70
192
0
VERTEX
8
OBJECT__6
10
11.596000
20
-10.552000
30
-12.576000
70
192
0
VERTEX
8
OBJECT__6
10
45.967999
20
-5.508000
30
-15.133000
70
192
0
VERTEX
8
OBJECT__6
10
11.596000
20
0.000000
30
-16.416000
70
192
0
VERTEX
8
OBJECT__6
10
44.506001
20
-1.499000
30
-16.059000
70
192
0
VERTEX
8
OBJECT__6
10
45.319000
20
-4.318000
30
-15.533000
70
192
0
VERTEX
8
OBJECT__6
10
45.306999
20
-4.285000
30
-15.541000
70
192
0
VERTEX
8
OBJECT__6
10
44.855000
20
-3.071000
30
-15.831000
70
192
0
VERTEX
8
OBJECT__6
10
11.596000
20
5.615000
30
-15.426000
70
192
0
VERTEX
8
OBJECT__6
10
45.115002
20
3.828000
30
-15.663000
70
192
0
VERTEX
8
OBJECT__6
10
45.327999
20
4.274000
30
-15.529000
70
192
0
VERTEX
8
OBJECT__6
10
44.553001
20
1.797000
30
-16.028000
70
192
0
VERTEX
8
OBJECT__6
10
44.653999
20
2.306000
30
-15.962000
70
192
0
VERTEX
8
OBJECT__6
10
44.402000
20
0.214000
30
-16.129000
70
192
0
VERTEX
8
OBJECT__6
10
45.800999
20
5.267000
30
-15.233000
70
192
0
VERTEX
8
OBJECT__6
10
44.415001
20
0.000000
30
-16.120001
70
192
0
VERTEX
8
OBJECT__6
10
11.596000
20
10.552000
30
-12.576000
70
192
0
VERTEX
8
OBJECT__6
10
50.929001
20
9.787000
30
-12.750000
70
192
0
VERTEX
8
OBJECT__6
10
51.653000
20
10.025000
30
-12.551000
70
192
0
VERTEX
8
OBJECT__6
10
52.478001
20
10.296000
30
-12.325000
70
192
0
VERTEX
8
OBJECT__6
10
46.863998
20
6.795000
30
-14.605000
70
192
0
VERTEX
8
OBJECT__6
10
47.876999
20
7.828000
30
-14.061000
70
192
0
VERTEX
8
OBJECT__6
10
45.969002
20
5.508000
30
-15.134000
70
192
0
VERTEX
8
OBJECT__6
10
48.043999
20
7.999000
30
-13.970000
70
192
0
VERTEX
8
OBJECT__6
10
49.466000
20
9.041000
30
-13.305000
70
192
0
VERTEX
8
OBJECT__6
10
67.041000
20
11.956000
30
-10.530000
70
192
0
VERTEX
8
OBJECT__6
10
56.500999
20
10.493000
30
-12.111000
70
192
0
VERTEX
8
OBJECT__6
10
57.418999
20
10.294000
30
-12.268000
70
192
0
VERTEX
8
OBJECT__6
10
67.041000
20
10.178000
30
-12.135000
70
192
0
VERTEX
8
OBJECT__6
10
55.238998
20
10.597000
30
-12.035000
70
192
0
VERTEX
8
OBJECT__6
10
55.993999
20
10.535000
30
-12.080000
70
192
0
VERTEX
8
OBJECT__6
10
53.722000
20
10.523000
30
-12.117000
70
192
0
VERTEX
8
OBJECT__6
10
52.622002
20
10.322000
30
-12.301000
70
192
0
VERTEX
8
OBJECT__6
10
58.724998
20
9.924000
30
-12.557000
70
192
0
VERTEX
8
OBJECT__6
10
60.176998
20
9.250000
30
-13.046000
70
192
0
VERTEX
8
OBJECT__6
10
57.974998
20
10.174000
30
-12.364000
70
192
0
VERTEX
8
OBJECT__6
10
67.041000
20
9.250000
30
-12.972000
70
192
0
VERTEX
8
OBJECT__6
10
67.041000
20
-9.250000
30
12.972000
70
192
0
VERTEX
8
OBJECT__6
10
0
20
0
30
0
70
128
71
1
72
2
73
3
0
VERTEX
8
OBJECT__6
10
0
20
0
30
0
70
128
71
2
72
4
73
3
0
VERTEX
8
OBJECT__6
10
0
20
0
30
0
70
128
71
3
72
5
73
1
0
VERTEX
8
OBJECT__6
10
0
20
0
30
0
70
128
71
2
72
6
73
7
0
VERTEX
8
OBJECT__6
10
0
20
0
30
0
70
128
71
6
72
8
73
7
0
VERTEX
8
OBJECT__6
10
0
20
0
30
0
70
128
71
9
72
10
73
11
0
VERTEX
8
OBJECT__6
10
0
20
0
30
0
70
128
71
11
72
6
73
9
0
VERTEX
8
OBJECT__6
10
0
20
0
30
0
70
128
71
9
72
12
73
10
0
VERTEX
8
OBJECT__6
10
0
20
0
30
0
70
128
71
13
72
14
73
15
0
VERTEX
8
OBJECT__6
10
0
20
0
30
0
70
128
71
14
72
16
73
15
0
VERTEX
8
OBJECT__6
10
0
20
0
30
0
70
128
71
15
72
17
73
13
0
VERTEX
8
OBJECT__6
10
0
20
0
30
0
70
128
71
14
72
18
73
19
0
VERTEX
8
OBJECT__6
10
0
20
0
30
0
70
128
71
18
72
20
73
19
0
VERTEX
8
OBJECT__6
10
0
20
0
30
0
70
128
71
21
72
22
73
23
0
VERTEX
8
OBJECT__6
10
0
20
0
30
0
70
128
71
23
72
18
73
21
0
VERTEX
8
OBJECT__6
10
0
20
0
30
0
70
128
71
21
72
24
73
22
0
VERTEX
8
OBJECT__6
10
0
20
0
30
0
70
128
71
25
72
26
73
27
0
VERTEX
8
OBJECT__6
10
0
20
0
30
0
70
128
71
13
72
28
73
29
0
VERTEX
8
OBJECT__6
10
0
20
0
30
0
70
128
71
13
72
30
73
28
0
VERTEX
8
OBJECT__6
10
0
20
0
30
0
70
128
71
13
72
31
73
32
0
VERTEX
8
OBJECT__6
10
0
20
0
30
0
70
128
71
13
72
33
73
31
0
VERTEX
8
OBJECT__6
10
0
20
0
30
0
70
128
71
13
72
34
73
33
0
VERTEX
8
OBJECT__6
10
0
20
0
30
0
70
128
71
32
72
30
73
13
0
VERTEX
8
OBJECT__6
10
0
20
0
30
0
70
128
71
13
72
35
73
34
0
VERTEX
8
OBJECT__6
10
0
20
0
30
0
70
128
71
36
72
37
73
35
0
VERTEX
8
OBJECT__6
10
0
20
0
30
0
70
128
71
36
72
38
73
37
0
VERTEX
8
OBJECT__6
10
0
20
0
30
0
70
128
71
35
72
13
73
36
0
VERTEX
8
OBJECT__6
10
0
20
0
30
0
70
128
71
36
72
39
73
40
0
VERTEX
8
OBJECT__6
10
0
20
0
30
0
70
128
71
41
72
25
73
42
0
VERTEX
8
OBJECT__6
10
0
20
0
30
0
70
128
71
43
72
36
73
41
0
VERTEX
8
OBJECT__6
10
0
20
0
30
0
70
128
71
42
72
43
73
41
0
VERTEX
8
OBJECT__6
10
0
20
0
30
0
70
128
71
43
72
39
73
36
0
VERTEX
8
OBJECT__6
10
0
20
0
30
0
70
128
71
40
72
44
73
36
0
VERTEX
8
OBJECT__6
10
0
20
0
30
0
70
128
71
44
72
45
73
36
0
VERTEX
8
OBJECT__6
10
0
20
0
30
0
70
128
71
45
72
38
73
36
0
VERTEX
8
OBJECT__6
10
0
20
0
30
0
70
128
71
46
72
47
73
48
0
VERTEX
8
OBJECT__6
10
0
20
0
30
0
70
128
71
46
72
49
73
47
0
VERTEX
8
OBJECT__6
10
0
20
0
30
0
70
128
71
46
72
50
73
51
0
VERTEX
8
OBJECT__6
10
0
20
0
30
0
70
128
71
51
72
49
73
46
0
VERTEX
8
OBJECT__6
10
0
20
0
30
0
70
128
71
46
72
29
73
50
0
VERTEX
8
OBJECT__6
10
0
20
0
30
0
70
128
71
52
72
53
73
54
0
VERTEX
8
OBJECT__6
10
0
20
0
30
0
70
128
71
53
72
55
73
56
0
VERTEX
8
OBJECT__6
10
0
20
0
30
0
70
128
71
56
72
54
73
53
0
VERTEX
8
OBJECT__6
10
0
20
0
30
0
70
128
71
53
72
57
73
58
0
VERTEX
8
OBJECT__6
10
0
20
0
30
0
70
128
71
53
72
48
73
57
0
VERTEX
8
OBJECT__6
10
0
20
0
30
0
70
128
71
58
72
55
73
53
0
VERTEX
8
OBJECT__6
10
0
20
0
30
0
70
128
71
59
72
60
73
61
0
VERTEX
8
OBJECT__6
10
0
20
0
30
0
70
128
71
61
72
62
73
59
0
VERTEX
8
OBJECT__6
10
0
20
0
30
0
70
128
71
59
72
63
73
60
0
VERTEX
8
OBJECT__6
10
0
20
0
30
0
70
128
71
64
72
59
73
52
0
VERTEX
8
OBJECT__6
10
0
20
0
30
0
70
128
71
64
72
65
73
59
0
VERTEX
8
OBJECT__6
10
0
20
0
30
0
70
128
71
65
72
63
73
59
0
VERTEX
8
OBJECT__6
10
0
20
0
30
0
70
128
71
66
72
67
73
68
0
VERTEX
8
OBJECT__6
10
0
20
0
30
0
70
128
71
68
72
69
73
66
0
VERTEX
8
OBJECT__6
10
0
20
0
30
0
70
128
71
69
72
70
73
66
0
VERTEX
8
OBJECT__6
10
0
20
0
30
0
70
128
71
66
72
59
73
71
0
VERTEX
8
OBJECT__6
10
0
20
0
30
0
70
128
71
71
72
72
73
66
0
VERTEX
8
OBJECT__6
10
0
20
0
30
0
70
128
71
72
72
67
73
66
0
VERTEX
8
OBJECT__6
10
0
20
0
30
0
70
128
71
73
72
74
73
75
0
VERTEX
8
OBJECT__6
10
0
20
0
30
0
70
128
71
75
72
76
73
73
0
VERTEX
8
OBJECT__6
10
0
20
0
30
0
70
128
71
12
72
77
73
78
0
VERTEX
8
OBJECT__6
10
0
20
0
30
0
70
128
71
78
72
79
73
12
0
VERTEX
8
OBJECT__6
10
0
20
0
30
0
70
128
71
79
72
74
73
12
0
VERTEX
8
OBJECT__6
10
0
20
0
30
0
70
128
71
12
72
80
73
77
0
VERTEX
8
OBJECT__6
10
0
20
0
30
0
70
128
71
12
72
81
73
80
0
VERTEX
8
OBJECT__6
10
0
20
0
30
0
70
128
71
12
72
9
73
82
0
VERTEX
8
OBJECT__6
10
0
20
0
30
0
70
128
71
82
72
83
73
12
0
VERTEX
8
OBJECT__6
10
0
20
0
30
0
70
128
71
83
72
81
73
12
0
VERTEX
8
OBJECT__6
10
0
20
0
30
0
70
128
71
9
72
84
73
85
0
VERTEX
8
OBJECT__6
10
0
20
0
30
0
70
128
71
9
72
66
73
86
0
VERTEX
8
OBJECT__6
10
0
20
0
30
0
70
128
71
86
72
87
73
9
0
VERTEX
8
OBJECT__6
10
0
20
0
30
0
70
128
71
87
72
84
73
9
0
VERTEX
8
OBJECT__6
10
0
20
0
30
0
70
128
71
85
72
88
73
9
0
VERTEX
8
OBJECT__6
10
0
20
0
30
0
70
128
71
88
72
89
73
9
0
VERTEX
8
OBJECT__6
10
0
20
0
30
0
70
128
71
89
72
82
73
9
0
VERTEX
8
OBJECT__6
10
0
20
0
30
0
70
128
71
76
72
90
73
91
0
VERTEX
8
OBJECT__6
10
0
20
0
30
0
70
128
71
76
72
75
73
90
0
VERTEX
8
OBJECT__6
10
0
20
0
30
0
70
128
71
92
72
93
73
94
0
VERTEX
8
OBJECT__6
10
0
20
0
30
0
70
128
71
94
72
95
73
92
0
VERTEX
8
OBJECT__6
10
0
20
0
30
0
70
128
71
95
72
96
73
92
0
VERTEX
8
OBJECT__6
10
0
20
0
30
0
70
128
71
1
72
97
73
98
0
VERTEX
8
OBJECT__6
10
0
20
0
30
0
70
128
71
99
72
100
73
97
0
VERTEX
8
OBJECT__6
10
0
20
0
30
0
70
128
71
97
72
1
73
99
0
VERTEX
8
OBJECT__6
10
0
20
0
30
0
70
128
71
99
72
101
73
102
0
VERTEX
8
OBJECT__6
10
0
20
0
30
0
70
128
71
103
72
92
73
104
0
VERTEX
8
OBJECT__6
10
0
20
0
30
0
70
128
71
101
72
99
73
103
0
VERTEX
8
OBJECT__6
10
0
20
0
30
0
70
128
71
104
72
101
73
103
0
VERTEX
8
OBJECT__6
10
0
20
0
30
0
70
128
71
102
72
100
73
99
0
VERTEX
8
OBJECT__6
10
0
20
0
30
0
70
128
71
105
72
106
73
107
0
VERTEX
8
OBJECT__6
10
0
20
0
30
0
70
128
71
105
72
108
73
109
0
VERTEX
8
OBJECT__6
10
0
20
0
30
0
70
128
71
109
72
106
73
105
0
VERTEX
8
OBJECT__6
10
0
20
0
30
0
70
128
71
105
72
110
73
108
0
VERTEX
8
OBJECT__6
10
0
20
0
30
0
70
128
71
105
72
111
73
110
0
VERTEX
8
OBJECT__6
10
0
20
0
30
0
70
128
71
105
72
112
73
113
0
VERTEX
8
OBJECT__6
10
0
20
0
30
0
70
128
71
113
72
111
73
105
0
VERTEX
8
OBJECT__6
10
0
20
0
30
0
70
128
71
114
72
98
73
112
0
VERTEX
8
OBJECT__6
10
0
20
0
30
0
70
128
71
112
72
105
73
114
0
VERTEX
8
OBJECT__6
10
0
20
0
30
0
70
128
71
107
72
115
73
105
0
VERTEX
8
OBJECT__6
10
0
20
0
30
0
70
128
71
116
72
105
73
117
0
VERTEX
8
OBJECT__6
10
0
20
0
30
0
70
128
71
105
72
118
73
119
0
VERTEX
8
OBJECT__6
10
0
20
0
30
0
70
128
71
105
72
115
73
118
0
VERTEX
8
OBJECT__6
10
0
20
0
30
0
70
128
71
119
72
120
73
105
0
VERTEX
8
OBJECT__6
10
0
20
0
30
0
70
128
71
120
72
117
73
105
0
VERTEX
8
OBJECT__6
10
0
20
0
30
0
70
128
71
121
72
122
73
123
0
VERTEX
8
OBJECT__6
10
0
20
0
30
0
70
128
71
121
72
124
73
125
0
VERTEX
8
OBJECT__6
10
0
20
0
30
0
70
128
71
121
72
116
73
126
0
VERTEX
8
OBJECT__6
10
0
20
0
30
0
70
128
71
126
72
124
73
121
0
VERTEX
8
OBJECT__6
10
0
20
0
30
0
70
128
71
125
72
122
73
121
0
VERTEX
8
OBJECT__6
10
0
20
0
30
0
70
128
71
123
72
127
73
121
0
VERTEX
8
OBJECT__6
10
0
20
0
30
0
70
128
71
128
72
126
73
116
0
VERTEX
8
OBJECT__6
10
0
20
0
30
0
70
128
71
129
72
130
73
131
0
VERTEX
8
OBJECT__6
10
0
20
0
30
0
70
128
71
131
72
132
73
129
0
VERTEX
8
OBJECT__6
10
0
20
0
30
0
70
128
71
129
72
133
73
134
0
VERTEX
8
OBJECT__6
10
0
20
0
30
0
70
128
71
129
72
121
73
135
0
VERTEX
8
OBJECT__6
10
0
20
0
30
0
70
128
71
135
72
133
73
129
0
VERTEX
8
OBJECT__6
10
0
20
0
30
0
70
128
71
134
72
136
73
129
0
VERTEX
8
OBJECT__6
10
0
20
0
30
0
70
128
71
136
72
137
73
129
0
VERTEX
8
OBJECT__6
10
0
20
0
30
0
70
128
71
137
72
130
73
129
0
VERTEX
8
OBJECT__6
10
0
20
0
30
0
70
128
71
138
72
139
73
140
0
VERTEX
8
OBJECT__6
10
0
20
0
30
0
70
128
71
140
72
141
73
138
0
VERTEX
8
OBJECT__6
10
0
20
0
30
0
70
128
71
24
72
142
73
143
0
VERTEX
8
OBJECT__6
10
0
20
0
30
0
70
128
71
143
72
139
73
24
0
VERTEX
8
OBJECT__6
10
0
20
0
30
0
70
128
71
24
72
21
73
144
0
VERTEX
8
OBJECT__6
10
0
20
0
30
0
70
128
71
21
72
129
73
145
0
VERTEX
8
OBJECT__6
10
0
20
0
30
0
70
128
71
145
72
144
73
21
0
VERTEX
8
OBJECT__6
10
0
20
0
30
0
70
128
71
144
72
142
73
24
0
VERTEX
8
OBJECT__6
10
0
20
0
30
0
70
128
71
141
72
146
73
147
0
VERTEX
8
OBJECT__6
10
0
20
0
30
0
70
128
71
141
72
148
73
146
0
VERTEX
8
OBJECT__6
10
0
20
0
30
0
70
128
71
141
72
140
73
148
0
VERTEX
8
OBJECT__6
10
0
20
0
30
0
70
128
71
147
72
149
73
141
0
VERTEX
8
OBJECT__6
10
0
20
0
30
0
70
128
71
138
72
24
73
139
0
VERTEX
8
OBJECT__6
10
0
20
0
30
0
70
128
71
132
72
145
73
129
0
VERTEX
8
OBJECT__6
10
0
20
0
30
0
70
128
71
127
72
135
73
121
0
VERTEX
8
OBJECT__6
10
0
20
0
30
0
70
128
71
117
72
128
73
116
0
VERTEX
8
OBJECT__6
10
0
20
0
30
0
70
128
71
98
72
114
73
1
0
VERTEX
8
OBJECT__6
10
0
20
0
30
0
70
128
71
96
72
104
73
92
0
VERTEX
8
OBJECT__6
10
0
20
0
30
0
70
128
71
91
72
150
73
76
0
VERTEX
8
OBJECT__6
10
0
20
0
30
0
70
128
71
73
72
12
73
74
0
VERTEX
8
OBJECT__6
10
0
20
0
30
0
70
128
71
70
72
86
73
66
0
VERTEX
8
OBJECT__6
10
0
20
0
30
0
70
128
71
62
72
71
73
59
0
VERTEX
8
OBJECT__6
10
0
20
0
30
0
70
128
71
54
72
64
73
52
0
VERTEX
8
OBJECT__6
10
0
20
0
30
0
70
128
71
48
72
53
73
46
0
VERTEX
8
OBJECT__6
10
0
20
0
30
0
70
128
71
29
72
46
73
13
0
VERTEX
8
OBJECT__6
10
0
20
0
30
0
70
128
71
27
72
42
73
25
0
VERTEX
8
OBJECT__6
10
0
20
0
30
0
70
128
71
23
72
20
73
18
0
VERTEX
8
OBJECT__6
10
0
20
0
30
0
70
128
71
19
72
16
73
14
0
VERTEX
8
OBJECT__6
10
0
20
0
30
0
70
128
71
17
72
36
73
13
0
VERTEX
8
OBJECT__6
10
0
20
0
30
0
70
128
71
11
72
8
73
6
0
VERTEX
8
OBJECT__6
10
0
20
0
30
0
70
128
71
7
72
4
73
2
0
VERTEX
8
OBJECT__6
10
0
20
0
30
0
70
128
71
5
72
99
73
1
0
SEQEND
8
OBJECT__6
0
POLYLINE
8
OBJECT__8
66
1
70
64
71
28
72
26
62
253
0
VERTEX
8
OBJECT__8
10
67.041000
20
-11.956000
30
10.530000
70
192
0
VERTEX
8
OBJECT__8
10
67.041000
20
-10.178000
30
12.135000
70
192
0
VERTEX
8
OBJECT__8
10
67.114998
20
-9.250000
30
9.730000
70
192
0
VERTEX
8
OBJECT__8
10
67.140999
20
-9.250000
30
8.224000
70
192
0
VERTEX
8
OBJECT__8
10
67.041000
20
-13.743000
30
7.928000
70
192
0
VERTEX
8
OBJECT__8
10
67.163002
20
-9.250000
30
6.892000
70
192
0
VERTEX
8
OBJECT__8
10
67.180000
20
-9.250000
30
4.988000
70
192
0
VERTEX
8
OBJECT__8
10
67.041000
20
-14.122000
30
7.377000
70
192
0
VERTEX
8
OBJECT__8
10
67.041000
20
-15.473000
30
3.798000
70
192
0
VERTEX
8
OBJECT__8
10
67.041000
20
-15.599000
30
2.756000
70
192
0
VERTEX
8
OBJECT__8
10
67.204002
20
-9.250000
30
2.293000
70
192
0
VERTEX
8
OBJECT__8
10
67.041000
20
-15.932000
30
0.000000
70
192
0
VERTEX
8
OBJECT__8
10
67.207001
20
-9.250000
30
1.926000
70
192
0
VERTEX
8
OBJECT__8
10
67.207001
20
-9.250000
30
0.000000
70
192
0
VERTEX
8
OBJECT__8
10
67.207001
20
-9.250000
30
-1.799000
70
192
0
VERTEX
8
OBJECT__8
10
67.041000
20
-15.599000
30
-2.756000
70
192
0
VERTEX
8
OBJECT__8
10
67.204002
20
-9.250000
30
-2.285000
70
192
0
VERTEX
8
OBJECT__8
10
67.041000
20
-15.473000
30
-3.798000
70
192
0
VERTEX
8
OBJECT__8
10
67.189003
20
-9.250000
30
-4.593000
70
192
0
VERTEX
8
OBJECT__8
10
67.185997
20
-9.250000
30
-4.859000
70
192
0
VERTEX
8
OBJECT__8
10
67.041000
20
-13.743000
30
-7.928000
70
192
0
VERTEX
8
OBJECT__8
10
67.139999
20
-9.250000
30
-8.230000
70
192
0
VERTEX
8
OBJECT__8
10
67.041000
20
-11.956000
30
-10.530000
70
192
0
VERTEX
8
OBJECT__8
10
67.133003
20
-9.250000
30
-8.783000
70
192
0
VERTEX
8
OBJECT__8
10
67.041000
20
-9.250000
30
-12.972000
70
192
0
VERTEX
8
OBJECT__8
10
67.041000
20
-10.178000
30
-12.135000
70
192
0
VERTEX
8
OBJECT__8
10
67.041000
20
-14.122000
30
-7.377000
70
192
0
VERTEX
8
OBJECT__8
10
67.041000
20
-9.250000
30
12.972000
70
192
0
VERTEX
8
OBJECT__8
10
0
20
0
30
0
70
128
71
1
72
2
73
3
0
VERTEX
8
OBJECT__8
10
0
20
0
30
0
70
128
71
3
72
4
73
1
0
VERTEX
8
OBJECT__8
10
0
20
0
30
0
70
128
71
5
72
1
73
4
0
VERTEX
8
OBJECT__8
10
0
20
0
30
0
70
128
71
4
72
6
73
5
0
VERTEX
8
OBJECT__8
10
0
20
0
30
0
70
128
71
7
72
8
73
5
0
VERTEX
8
OBJECT__8
10
0
20
0
30
0
70
128
71
9
72
8
73
7
0
VERTEX
8
OBJECT__8
10
0
20
0
30
0
70
128
71
10
72
9
73
11
0
VERTEX
8
OBJECT__8
10
0
20
0
30
0
70
128
71
12
72
10
73
13
0
VERTEX
8
OBJECT__8
10
0
20
0
30
0
70
128
71
13
72
14
73
12
0
VERTEX
8
OBJECT__8
10
0
20
0
30
0
70
128
71
12
72
14
73
15
0
VERTEX
8
OBJECT__8
10
0
20
0
30
0
70
128
71
16
72
15
73
17
0
VERTEX
8
OBJECT__8
10
0
20
0
30
0
70
128
71
17
72
18
73
16
0
VERTEX
8
OBJECT__8
10
0
20
0
30
0
70
128
71
18
72
19
73
20
0
VERTEX
8
OBJECT__8
10
0
20
0
30
0
70
128
71
18
72
17
73
19
0
VERTEX
8
OBJECT__8
10
0
20
0
30
0
70
128
71
21
72
20
73
22
0
VERTEX
8
OBJECT__8
10
0
20
0
30
0
70
128
71
22
72
23
73
21
0
VERTEX
8
OBJECT__8
10
0
20
0
30
0
70
128
71
23
72
22
73
24
0
VERTEX
8
OBJECT__8
10
0
20
0
30
0
70
128
71
24
72
25
73
26
0
VERTEX
8
OBJECT__8
10
0
20
0
30
0
70
128
71
24
72
26
73
23
0
VERTEX
8
OBJECT__8
10
0
20
0
30
0
70
128
71
21
72
27
73
20
0
VERTEX
8
OBJECT__8
10
0
20
0
30
0
70
128
71
20
72
27
73
18
0
VERTEX
8
OBJECT__8
10
0
20
0
30
0
70
128
71
15
72
16
73
12
0
VERTEX
8
OBJECT__8
10
0
20
0
30
0
70
128
71
11
72
13
73
10
0
VERTEX
8
OBJECT__8
10
0
20
0
30
0
70
128
71
7
72
11
73
9
0
VERTEX
8
OBJECT__8
10
0
20
0
30
0
70
128
71
6
72
7
73
5
0
VERTEX
8
OBJECT__8
10
0
20
0
30
0
70
128
71
2
72
28
73
3
0
SEQEND
8
OBJECT__8
0
POLYLINE
8
OBJECT__9
66
1
70
64
71
89
72
87
62
253
0
VERTEX
8
OBJECT__9
10
58.632000
20
9.958000
30
-15.001000
70
192
0
VERTEX
8
OBJECT__9
10
60.096001
20
9.295000
30
-15.406000
70
192
0
VERTEX
8
OBJECT__9
10
60.176998
20
9.250000
30
-13.046000
70
192
0
VERTEX
8
OBJECT__9
10
58.724998
20
9.924000
30
-12.557000
70
192
0
VERTEX
8
OBJECT__9
10
57.084000
20
10.393000
30
-14.720000
70
192
0
VERTEX
8
OBJECT__9
10
57.974998
20
10.174000
30
-12.364000
70
192
0
VERTEX
8
OBJECT__9
10
57.418999
20
10.294000
30
-12.268000
70
192
0
VERTEX
8
OBJECT__9
10
56.500999
20
10.493000
30
-12.111000
70
192
0
VERTEX
8
OBJECT__9
10
55.992001
20
10.529000
30
-14.634000
70
192
0
VERTEX
8
OBJECT__9
10
55.993999
20
10.535000
30
-12.080000
70
192
0
VERTEX
8
OBJECT__9
10
55.238998
20
10.597000
30
-12.035000
70
192
0
VERTEX
8
OBJECT__9
10
55.526001
20
10.587000
30
-14.598000
70
192
0
VERTEX
8
OBJECT__9
10
53.722000
20
10.523000
30
-12.117000
70
192
0
VERTEX
8
OBJECT__9
10
53.966999
20
10.550000
30
-14.642000
70
192
0
VERTEX
8
OBJECT__9
10
52.216999
20
10.228000
30
-14.887000
70
192
0
VERTEX
8
OBJECT__9
10
53.791000
20
10.531000
30
-14.657000
70
192
0
VERTEX
8
OBJECT__9
10
52.478001
20
10.296000
30
-12.325000
70
192
0
VERTEX
8
OBJECT__9
10
52.622002
20
10.322000
30
-12.301000
70
192
0
VERTEX
8
OBJECT__9
10
51.653000
20
10.025000
30
-12.551000
70
192
0
VERTEX
8
OBJECT__9
10
51.650002
20
10.036000
30
-15.020000
70
192
0
VERTEX
8
OBJECT__9
10
50.929001
20
9.787000
30
-12.750000
70
192
0
VERTEX
8
OBJECT__9
10
51.009998
20
9.820000
30
-15.171000
70
192
0
VERTEX
8
OBJECT__9
10
49.466000
20
9.041000
30
-13.305000
70
192
0
VERTEX
8
OBJECT__9
10
48.043999
20
7.999000
30
-13.970000
70
192
0
VERTEX
8
OBJECT__9
10
48.396999
20
8.292000
30
-16.083000
70
192
0
VERTEX
8
OBJECT__9
10
49.493999
20
9.058000
30
-15.654000
70
192
0
VERTEX
8
OBJECT__9
10
47.876999
20
7.828000
30
-14.061000
70
192
0
VERTEX
8
OBJECT__9
10
47.872002
20
7.832000
30
-16.313999
70
192
0
VERTEX
8
OBJECT__9
10
45.567001
20
4.836000
30
-17.462999
70
192
0
VERTEX
8
OBJECT__9
10
46.219002
20
5.877000
30
-17.118000
70
192
0
VERTEX
8
OBJECT__9
10
45.800999
20
5.267000
30
-15.233000
70
192
0
VERTEX
8
OBJECT__9
10
45.327999
20
4.274000
30
-15.529000
70
192
0
VERTEX
8
OBJECT__9
10
45.332001
20
4.274000
30
-17.594999
70
192
0
VERTEX
8
OBJECT__9
10
46.527000
20
6.369000
30
-16.954000
70
192
0
VERTEX
8
OBJECT__9
10
47.646000
20
7.634000
30
-16.413000
70
192
0
VERTEX
8
OBJECT__9
10
46.863998
20
6.795000
30
-14.605000
70
192
0
VERTEX
8
OBJECT__9
10
45.969002
20
5.508000
30
-15.134000
70
192
0
VERTEX
8
OBJECT__9
10
44.415001
20
0.001000
30
-16.120001
70
192
0
VERTEX
8
OBJECT__9
10
44.414001
20
-0.001000
30
-18.121000
70
192
0
VERTEX
8
OBJECT__9
10
44.402000
20
0.214000
30
-16.129000
70
192
0
VERTEX
8
OBJECT__9
10
44.492001
20
1.395000
30
-18.075001
70
192
0
VERTEX
8
OBJECT__9
10
44.553001
20
1.797000
30
-16.028000
70
192
0
VERTEX
8
OBJECT__9
10
44.549999
20
1.779000
30
-18.041000
70
192
0
VERTEX
8
OBJECT__9
10
44.941002
20
3.344000
30
-17.813999
70
192
0
VERTEX
8
OBJECT__9
10
44.653999
20
2.306000
30
-15.962000
70
192
0
VERTEX
8
OBJECT__9
10
45.115002
20
3.828000
30
-15.663000
70
192
0
VERTEX
8
OBJECT__9
10
44.855000
20
-3.071000
30
-15.831000
70
192
0
VERTEX
8
OBJECT__9
10
45.306999
20
-4.285000
30
-15.541000
70
192
0
VERTEX
8
OBJECT__9
10
45.325001
20
-4.277000
30
-17.598000
70
192
0
VERTEX
8
OBJECT__9
10
44.570999
20
-1.894000
30
-18.028999
70
192
0
VERTEX
8
OBJECT__9
10
44.506001
20
-1.499000
30
-16.059000
70
192
0
VERTEX
8
OBJECT__9
10
44.987999
20
-3.481000
30
-17.787001
70
192
0
VERTEX
8
OBJECT__9
10
44.402000
20
-0.220000
30
-18.129000
70
192
0
VERTEX
8
OBJECT__9
10
46.929001
20
-6.872000
30
-14.569000
70
192
0
VERTEX
8
OBJECT__9
10
47.882000
20
-7.822000
30
-14.060000
70
192
0
VERTEX
8
OBJECT__9
10
47.888000
20
-7.814000
30
-16.313999
70
192
0
VERTEX
8
OBJECT__9
10
47.354000
20
-7.342000
30
-16.549000
70
192
0
VERTEX
8
OBJECT__9
10
46.415001
20
-6.218000
30
-17.011999
70
192
0
VERTEX
8
OBJECT__9
10
46.119999
20
-5.788000
30
-15.040000
70
192
0
VERTEX
8
OBJECT__9
10
46.209000
20
-5.878000
30
-17.122000
70
192
0
VERTEX
8
OBJECT__9
10
45.967999
20
-5.508000
30
-15.133000
70
192
0
VERTEX
8
OBJECT__9
10
45.319000
20
-4.318000
30
-15.533000
70
192
0
VERTEX
8
OBJECT__9
10
45.530998
20
-4.765000
30
-17.482000
70
192
0
VERTEX
8
OBJECT__9
10
48.638000
20
-8.479000
30
-15.983000
70
192
0
VERTEX
8
OBJECT__9
10
50.213001
20
-9.458000
30
-15.408000
70
192
0
VERTEX
8
OBJECT__9
10
48.155998
20
-8.094000
30
-13.914000
70
192
0
VERTEX
8
OBJECT__9
10
49.549000
20
-9.091000
30
-13.269000
70
192
0
VERTEX
8
OBJECT__9
10
50.973000
20
-9.805000
30
-12.735000
70
192
0
VERTEX
8
OBJECT__9
10
51.645000
20
-10.051000
30
-15.012000
70
192
0
VERTEX
8
OBJECT__9
10
51.653000
20
-10.025000
30
-12.551000
70
192
0
VERTEX
8
OBJECT__9
10
53.235001
20
-10.452000
30
-14.719000
70
192
0
VERTEX
8
OBJECT__9
10
51.692001
20
-10.071000
30
-14.999000
70
192
0
VERTEX
8
OBJECT__9
10
52.536999
20
-10.310000
30
-12.312000
70
192
0
VERTEX
8
OBJECT__9
10
52.610001
20
-10.322000
30
-12.301000
70
192
0
VERTEX
8
OBJECT__9
10
54.021000
20
-10.555000
30
-12.086000
70
192
0
VERTEX
8
OBJECT__9
10
54.798000
20
-10.598000
30
-14.598000
70
192
0
VERTEX
8
OBJECT__9
10
55.270000
20
-10.597000
30
-12.035000
70
192
0
VERTEX
8
OBJECT__9
10
55.993000
20
-10.524000
30
-14.638000
70
192
0
VERTEX
8
OBJECT__9
10
55.992001
20
-10.526000
30
-12.088000
70
192
0
VERTEX
8
OBJECT__9
10
56.787998
20
-10.448000
30
-12.147000
70
192
0
VERTEX
8
OBJECT__9
10
56.506001
20
-10.492000
30
-14.656000
70
192
0
VERTEX
8
OBJECT__9
10
57.452999
20
-10.294000
30
-12.268000
70
192
0
VERTEX
8
OBJECT__9
10
57.980999
20
-10.172000
30
-12.365000
70
192
0
VERTEX
8
OBJECT__9
10
59.500000
20
-9.597000
30
-12.800000
70
192
0
VERTEX
8
OBJECT__9
10
59.264000
20
-9.704000
30
-15.160000
70
192
0
VERTEX
8
OBJECT__9
10
58.075001
20
-10.144000
30
-14.882000
70
192
0
VERTEX
8
OBJECT__9
10
60.176998
20
-9.250000
30
-13.046000
70
192
0
VERTEX
8
OBJECT__9
10
60.176998
20
-9.250000
30
-15.432000
70
192
0
VERTEX
8
OBJECT__9
10
60.176998
20
9.250000
30
-15.432000
70
192
0
VERTEX
8
OBJECT__9
10
0
20
0
30
0
70
128
71
1
72
2
73
3
0
VERTEX
8
OBJECT__9
10
0
20
0
30
0
70
128
71
3
72
4
73
1
0
VERTEX
8
OBJECT__9
10
0
20
0
30
0
70
128
71
5
72
1
73
4
0
VERTEX
8
OBJECT__9
10
0
20
0
30
0
70
128
71
4
72
6
73
5
0
VERTEX
8
OBJECT__9
10
0
20
0
30
0
70
128
71
6
72
7
73
5
0
VERTEX
8
OBJECT__9
10
0
20
0
30
0
70
128
71
8
72
9
73
5
0
VERTEX
8
OBJECT__9
10
0
20
0
30
0
70
128
71
5
72
7
73
8
0
VERTEX
8
OBJECT__9
10
0
20
0
30
0
70
128
71
8
72
10
73
9
0
VERTEX
8
OBJECT__9
10
0
20
0
30
0
70
128
71
10
72
11
73
12
0
VERTEX
8
OBJECT__9
10
0
20
0
30
0
70
128
71
11
72
13
73
14
0
VERTEX
8
OBJECT__9
10
0
20
0
30
0
70
128
71
15
72
16
73
17
0
VERTEX
8
OBJECT__9
10
0
20
0
30
0
70
128
71
16
72
18
73
17
0
VERTEX
8
OBJECT__9
10
0
20
0
30
0
70
128
71
16
72
13
73
18
0
VERTEX
8
OBJECT__9
10
0
20
0
30
0
70
128
71
17
72
19
73
15
0
VERTEX
8
OBJECT__9
10
0
20
0
30
0
70
128
71
16
72
14
73
13
0
VERTEX
8
OBJECT__9
10
0
20
0
30
0
70
128
71
19
72
20
73
15
0
VERTEX
8
OBJECT__9
10
0
20
0
30
0
70
128
71
14
72
12
73
11
0
VERTEX
8
OBJECT__9
10
0
20
0
30
0
70
128
71
20
72
19
73
21
0
VERTEX
8
OBJECT__9
10
0
20
0
30
0
70
128
71
22
72
21
73
23
0
VERTEX
8
OBJECT__9
10
0
20
0
30
0
70
128
71
24
72
25
73
26
0
VERTEX
8
OBJECT__9
10
0
20
0
30
0
70
128
71
26
72
23
73
24
0
VERTEX
8
OBJECT__9
10
0
20
0
30
0
70
128
71
27
72
28
73
25
0
VERTEX
8
OBJECT__9
10
0
20
0
30
0
70
128
71
24
72
27
73
25
0
VERTEX
8
OBJECT__9
10
0
20
0
30
0
70
128
71
23
72
26
73
22
0
VERTEX
8
OBJECT__9
10
0
20
0
30
0
70
128
71
29
72
30
73
31
0
VERTEX
8
OBJECT__9
10
0
20
0
30
0
70
128
71
32
72
33
73
29
0
VERTEX
8
OBJECT__9
10
0
20
0
30
0
70
128
71
34
72
35
73
36
0
VERTEX
8
OBJECT__9
10
0
20
0
30
0
70
128
71
37
72
30
73
34
0
VERTEX
8
OBJECT__9
10
0
20
0
30
0
70
128
71
36
72
37
73
34
0
VERTEX
8
OBJECT__9
10
0
20
0
30
0
70
128
71
36
72
35
73
28
0
VERTEX
8
OBJECT__9
10
0
20
0
30
0
70
128
71
28
72
27
73
36
0
VERTEX
8
OBJECT__9
10
0
20
0
30
0
70
128
71
37
72
31
73
30
0
VERTEX
8
OBJECT__9
10
0
20
0
30
0
70
128
71
40
72
39
73
41
0
VERTEX
8
OBJECT__9
10
0
20
0
30
0
70
128
71
41
72
42
73
40
0
VERTEX
8
OBJECT__9
10
0
20
0
30
0
70
128
71
43
72
44
73
45
0
VERTEX
8
OBJECT__9
10
0
20
0
30
0
70
128
71
46
72
45
73
44
0
VERTEX
8
OBJECT__9
10
0
20
0
30
0
70
128
71
44
72
33
73
46
0
VERTEX
8
OBJECT__9
10
0
20
0
30
0
70
128
71
45
72
42
73
43
0
VERTEX
8
OBJECT__9
10
0
20
0
30
0
70
128
71
33
72
32
73
46
0
VERTEX
8
OBJECT__9
10
0
20
0
30
0
70
128
71
41
72
43
73
42
0
VERTEX
8
OBJECT__9
10
0
20
0
30
0
70
128
71
47
72
48
73
49
0
VERTEX
8
OBJECT__9
10
0
20
0
30
0
70
128
71
50
72
51
73
47
0
VERTEX
8
OBJECT__9
10
0
20
0
30
0
70
128
71
47
72
52
73
50
0
VERTEX
8
OBJECT__9
10
0
20
0
30
0
70
128
71
38
72
50
73
53
0
VERTEX
8
OBJECT__9
10
0
20
0
30
0
70
128
71
38
72
53
73
39
0
VERTEX
8
OBJECT__9
10
0
20
0
30
0
70
128
71
38
72
51
73
50
0
VERTEX
8
OBJECT__9
10
0
20
0
30
0
70
128
71
54
72
55
73
56
0
VERTEX
8
OBJECT__9
10
0
20
0
30
0
70
128
71
57
72
58
73
59
0
VERTEX
8
OBJECT__9
10
0
20
0
30
0
70
128
71
59
72
54
73
57
0
VERTEX
8
OBJECT__9
10
0
20
0
30
0
70
128
71
58
72
60
73
61
0
VERTEX
8
OBJECT__9
10
0
20
0
30
0
70
128
71
62
72
61
73
60
0
VERTEX
8
OBJECT__9
10
0
20
0
30
0
70
128
71
60
72
63
73
62
0
VERTEX
8
OBJECT__9
10
0
20
0
30
0
70
128
71
61
72
59
73
58
0
VERTEX
8
OBJECT__9
10
0
20
0
30
0
70
128
71
63
72
49
73
48
0
VERTEX
8
OBJECT__9
10
0
20
0
30
0
70
128
71
48
72
62
73
63
0
VERTEX
8
OBJECT__9
10
0
20
0
30
0
70
128
71
64
72
56
73
55
0
VERTEX
8
OBJECT__9
10
0
20
0
30
0
70
128
71
65
72
64
73
66
0
VERTEX
8
OBJECT__9
10
0
20
0
30
0
70
128
71
66
72
67
73
65
0
VERTEX
8
OBJECT__9
10
0
20
0
30
0
70
128
71
68
72
69
73
65
0
VERTEX
8
OBJECT__9
10
0
20
0
30
0
70
128
71
65
72
67
73
68
0
VERTEX
8
OBJECT__9
10
0
20
0
30
0
70
128
71
68
72
70
73
69
0
VERTEX
8
OBJECT__9
10
0
20
0
30
0
70
128
71
71
72
72
73
70
0
VERTEX
8
OBJECT__9
10
0
20
0
30
0
70
128
71
70
72
73
73
71
0
VERTEX
8
OBJECT__9
10
0
20
0
30
0
70
128
71
73
72
74
73
71
0
VERTEX
8
OBJECT__9
10
0
20
0
30
0
70
128
71
75
72
76
73
71
0
VERTEX
8
OBJECT__9
10
0
20
0
30
0
70
128
71
71
72
74
73
75
0
VERTEX
8
OBJECT__9
10
0
20
0
30
0
70
128
71
75
72
77
73
76
0
VERTEX
8
OBJECT__9
10
0
20
0
30
0
70
128
71
78
72
76
73
77
0
VERTEX
8
OBJECT__9
10
0
20
0
30
0
70
128
71
77
72
79
73
78
0
VERTEX
8
OBJECT__9
10
0
20
0
30
0
70
128
71
79
72
80
73
81
0
VERTEX
8
OBJECT__9
10
0
20
0
30
0
70
128
71
81
72
82
73
83
0
VERTEX
8
OBJECT__9
10
0
20
0
30
0
70
128
71
81
72
80
73
82
0
VERTEX
8
OBJECT__9
10
0
20
0
30
0
70
128
71
84
72
85
73
86
0
VERTEX
8
OBJECT__9
10
0
20
0
30
0
70
128
71
85
72
84
73
87
0
VERTEX
8
OBJECT__9
10
0
20
0
30
0
70
128
71
87
72
88
73
85
0
VERTEX
8
OBJECT__9
10
0
20
0
30
0
70
128
71
86
72
83
73
84
0
VERTEX
8
OBJECT__9
10
0
20
0
30
0
70
128
71
83
72
86
73
81
0
VERTEX
8
OBJECT__9
10
0
20
0
30
0
70
128
71
81
72
78
73
79
0
VERTEX
8
OBJECT__9
10
0
20
0
30
0
70
128
71
72
72
69
73
70
0
VERTEX
8
OBJECT__9
10
0
20
0
30
0
70
128
71
55
72
66
73
64
0
VERTEX
8
OBJECT__9
10
0
20
0
30
0
70
128
71
56
72
57
73
54
0
VERTEX
8
OBJECT__9
10
0
20
0
30
0
70
128
71
49
72
52
73
47
0
VERTEX
8
OBJECT__9
10
0
20
0
30
0
70
128
71
39
72
40
73
38
0
VERTEX
8
OBJECT__9
10
0
20
0
30
0
70
128
71
31
72
32
73
29
0
VERTEX
8
OBJECT__9
10
0
20
0
30
0
70
128
71
21
72
22
73
20
0
VERTEX
8
OBJECT__9
10
0
20
0
30
0
70
128
71
12
72
9
73
10
0
VERTEX
8
OBJECT__9
10
0
20
0
30
0
70
128
71
2
72
89
73
3
0
SEQEND
8
OBJECT__9
0
POLYLINE
8
OBJECT__10
66
1
70
64
71
111
72
109
62
253
0
VERTEX
8
OBJECT__10
10
61.933998
20
-10.401000
30
14.663000
70
192
0
VERTEX
8
OBJECT__10
10
63.408001
20
-9.250000
30
15.400000
70
192
0
VERTEX
8
OBJECT__10
10
63.408001
20
-9.250000
30
13.011000
70
192
0
VERTEX
8
OBJECT__10
10
62.735001
20
-9.819000
30
12.595000
70
192
0
VERTEX
8
OBJECT__10
10
62.085999
20
-10.261000
30
12.228000
70
192
0
VERTEX
8
OBJECT__10
10
61.749001
20
-10.522000
30
14.578000
70
192
0
VERTEX
8
OBJECT__10
10
60.237000
20
-11.350000
30
13.960000
70
192
0
VERTEX
8
OBJECT__10
10
61.299000
20
-10.797000
30
11.784000
70
192
0
VERTEX
8
OBJECT__10
10
59.775002
20
-11.552000
30
11.064000
70
192
0
VERTEX
8
OBJECT__10
10
59.311001
20
-11.703000
30
13.671000
70
192
0
VERTEX
8
OBJECT__10
10
59.317001
20
-11.718000
30
10.891000
70
192
0
VERTEX
8
OBJECT__10
10
58.266998
20
-12.066000
30
13.370000
70
192
0
VERTEX
8
OBJECT__10
10
58.640999
20
-11.958000
30
13.462000
70
192
0
VERTEX
8
OBJECT__10
10
58.748001
20
-11.925000
30
10.675000
70
192
0
VERTEX
8
OBJECT__10
10
56.695000
20
-12.385000
30
13.094000
70
192
0
VERTEX
8
OBJECT__10
10
57.276001
20
-12.291000
30
10.271000
70
192
0
VERTEX
8
OBJECT__10
10
55.976002
20
-12.462000
30
10.081000
70
192
0
VERTEX
8
OBJECT__10
10
55.157001
20
-12.499000
30
13.003000
70
192
0
VERTEX
8
OBJECT__10
10
54.603001
20
-12.486000
30
10.070000
70
192
0
VERTEX
8
OBJECT__10
10
54.604000
20
-12.470000
30
13.037000
70
192
0
VERTEX
8
OBJECT__10
10
54.470001
20
-12.489000
30
10.069000
70
192
0
VERTEX
8
OBJECT__10
10
53.081001
20
-12.352000
30
10.255000
70
192
0
VERTEX
8
OBJECT__10
10
53.536999
20
-12.414000
30
13.104000
70
192
0
VERTEX
8
OBJECT__10
10
51.486000
20
-11.996000
30
10.691000
70
192
0
VERTEX
8
OBJECT__10
10
52.032001
20
-12.143000
30
13.373000
70
192
0
VERTEX
8
OBJECT__10
10
49.943001
20
-11.431000
30
11.312000
70
192
0
VERTEX
8
OBJECT__10
10
49.952999
20
-11.409000
30
14.020000
70
192
0
VERTEX
8
OBJECT__10
10
50.355000
20
-11.605000
30
13.861000
70
192
0
VERTEX
8
OBJECT__10
10
48.291000
20
-10.547000
30
12.159000
70
192
0
VERTEX
8
OBJECT__10
10
48.738998
20
-10.819000
30
14.501000
70
192
0
VERTEX
8
OBJECT__10
10
49.935001
20
-11.428000
30
11.315000
70
192
0
VERTEX
8
OBJECT__10
10
46.986000
20
-9.593000
30
15.358000
70
192
0
VERTEX
8
OBJECT__10
10
46.233002
20
-8.910000
30
13.426000
70
192
0
VERTEX
8
OBJECT__10
10
46.035000
20
-8.686000
30
13.562000
70
192
0
VERTEX
8
OBJECT__10
10
48.515999
20
-10.687000
30
14.601000
70
192
0
VERTEX
8
OBJECT__10
10
48.015999
20
-10.342000
30
12.325000
70
192
0
VERTEX
8
OBJECT__10
10
46.789001
20
-9.425000
30
13.064000
70
192
0
VERTEX
8
OBJECT__10
10
46.043999
20
-8.674000
30
15.887000
70
192
0
VERTEX
8
OBJECT__10
10
43.687000
20
-5.316000
30
17.340000
70
192
0
VERTEX
8
OBJECT__10
10
43.578999
20
-5.081000
30
15.316000
70
192
0
VERTEX
8
OBJECT__10
10
43.433998
20
-4.684000
30
15.427000
70
192
0
VERTEX
8
OBJECT__10
10
44.540001
20
-6.844000
30
16.787001
70
192
0
VERTEX
8
OBJECT__10
10
43.798000
20
-5.515000
30
15.153000
70
192
0
VERTEX
8
OBJECT__10
10
44.118000
20
-6.150000
30
14.914000
70
192
0
VERTEX
8
OBJECT__10
10
45.076000
20
-7.600000
30
14.221000
70
192
0
VERTEX
8
OBJECT__10
10
45.984001
20
-8.616000
30
15.921000
70
192
0
VERTEX
8
OBJECT__10
10
45.606998
20
-8.247000
30
16.134001
70
192
0
VERTEX
8
OBJECT__10
10
42.526001
20
-0.800000
30
18.129000
70
192
0
VERTEX
8
OBJECT__10
10
42.778999
20
-2.626000
30
17.952999
70
192
0
VERTEX
8
OBJECT__10
10
42.622002
20
-1.746000
30
16.051001
70
192
0
VERTEX
8
OBJECT__10
10
42.500000
20
-0.068000
30
16.146000
70
192
0
VERTEX
8
OBJECT__10
10
42.528999
20
0.000000
30
18.125999
70
192
0
VERTEX
8
OBJECT__10
10
43.002998
20
-3.510000
30
15.756000
70
192
0
VERTEX
8
OBJECT__10
10
42.882000
20
-2.984000
30
17.882999
70
192
0
VERTEX
8
OBJECT__10
10
43.250000
20
-4.265000
30
17.632000
70
192
0
VERTEX
8
OBJECT__10
10
43.424999
20
-4.687000
30
17.514000
70
192
0
VERTEX
8
OBJECT__10
10
42.993999
20
3.479000
30
15.763000
70
192
0
VERTEX
8
OBJECT__10
10
43.426998
20
4.687000
30
15.432000
70
192
0
VERTEX
8
OBJECT__10
10
43.426998
20
4.686000
30
17.513000
70
192
0
VERTEX
8
OBJECT__10
10
43.316002
20
4.443000
30
17.587000
70
192
0
VERTEX
8
OBJECT__10
10
42.875999
20
2.984000
30
17.886999
70
192
0
VERTEX
8
OBJECT__10
10
42.632000
20
1.813000
30
16.042999
70
192
0
VERTEX
8
OBJECT__10
10
42.808998
20
2.763000
30
17.931999
70
192
0
VERTEX
8
OBJECT__10
10
42.534000
20
0.916000
30
18.122999
70
192
0
VERTEX
8
OBJECT__10
10
42.603001
20
1.599000
30
16.066000
70
192
0
VERTEX
8
OBJECT__10
10
42.504002
20
0.000000
30
16.143000
70
192
0
VERTEX
8
OBJECT__10
10
45.247002
20
7.819000
30
14.100000
70
192
0
VERTEX
8
OBJECT__10
10
46.046001
20
8.675000
30
13.559000
70
192
0
VERTEX
8
OBJECT__10
10
46.030998
20
8.689000
30
15.889000
70
192
0
VERTEX
8
OBJECT__10
10
45.970001
20
8.618000
30
15.925000
70
192
0
VERTEX
8
OBJECT__10
10
44.984001
20
7.479000
30
16.510000
70
192
0
VERTEX
8
OBJECT__10
10
44.337002
20
6.523000
30
14.753000
70
192
0
VERTEX
8
OBJECT__10
10
43.998001
20
5.933000
30
17.136000
70
192
0
VERTEX
8
OBJECT__10
10
43.813000
20
5.511000
30
15.143000
70
192
0
VERTEX
8
OBJECT__10
10
43.519001
20
4.944000
30
15.362000
70
192
0
VERTEX
8
OBJECT__10
10
48.284000
20
10.542000
30
14.708000
70
192
0
VERTEX
8
OBJECT__10
10
46.826000
20
9.457000
30
15.443000
70
192
0
VERTEX
8
OBJECT__10
10
46.522999
20
9.187000
30
13.236000
70
192
0
VERTEX
8
OBJECT__10
10
46.153999
20
8.832000
30
15.816000
70
192
0
VERTEX
8
OBJECT__10
10
49.863998
20
11.396000
30
14.039000
70
192
0
VERTEX
8
OBJECT__10
10
48.105000
20
10.427000
30
12.265000
70
192
0
VERTEX
8
OBJECT__10
10
48.000999
20
10.345000
30
12.329000
70
192
0
VERTEX
8
OBJECT__10
10
49.589001
20
11.268000
30
11.478000
70
192
0
VERTEX
8
OBJECT__10
10
49.950001
20
11.413000
30
11.324000
70
192
0
VERTEX
8
OBJECT__10
10
49.943001
20
11.430000
30
14.010000
70
192
0
VERTEX
8
OBJECT__10
10
51.844002
20
12.095000
30
13.418000
70
192
0
VERTEX
8
OBJECT__10
10
50.289001
20
11.578000
30
13.885000
70
192
0
VERTEX
8
OBJECT__10
10
51.151001
20
11.893000
30
10.809000
70
192
0
VERTEX
8
OBJECT__10
10
53.551998
20
12.416000
30
13.102000
70
192
0
VERTEX
8
OBJECT__10
10
51.618000
20
12.034000
30
10.646000
70
192
0
VERTEX
8
OBJECT__10
10
53.094002
20
12.354000
30
10.253000
70
192
0
VERTEX
8
OBJECT__10
10
54.400002
20
12.486000
30
10.074000
70
192
0
VERTEX
8
OBJECT__10
10
54.604000
20
12.470000
30
13.037000
70
192
0
VERTEX
8
OBJECT__10
10
54.603001
20
12.483000
30
10.074000
70
192
0
VERTEX
8
OBJECT__10
10
55.907001
20
12.467000
30
10.076000
70
192
0
VERTEX
8
OBJECT__10
10
57.277000
20
12.291000
30
10.271000
70
192
0
VERTEX
8
OBJECT__10
10
56.763000
20
12.375000
30
13.102000
70
192
0
VERTEX
8
OBJECT__10
10
55.165001
20
12.499000
30
13.003000
70
192
0
VERTEX
8
OBJECT__10
10
57.030998
20
12.334000
30
13.137000
70
192
0
VERTEX
8
OBJECT__10
10
58.875000
20
11.884000
30
10.718000
70
192
0
VERTEX
8
OBJECT__10
10
58.668999
20
11.949000
30
13.469000
70
192
0
VERTEX
8
OBJECT__10
10
59.313000
20
11.708000
30
10.897000
70
192
0
VERTEX
8
OBJECT__10
10
59.314999
20
11.713000
30
13.664000
70
192
0
VERTEX
8
OBJECT__10
10
60.445000
20
11.252000
30
11.361000
70
192
0
VERTEX
8
OBJECT__10
10
59.901001
20
11.499000
30
13.841000
70
192
0
VERTEX
8
OBJECT__10
10
62.055000
20
10.319000
30
12.196000
70
192
0
VERTEX
8
OBJECT__10
10
61.542999
20
10.651000
30
14.486000
70
192
0
VERTEX
8
OBJECT__10
10
62.119999
20
10.267000
30
12.236000
70
192
0
VERTEX
8
OBJECT__10
10
63.408001
20
9.250000
30
13.011000
70
192
0
VERTEX
8
OBJECT__10
10
63.408001
20
9.250000
30
15.400000
70
192
0
VERTEX
8
OBJECT__10
10
63.056999
20
9.557000
30
15.214000
70
192
0
VERTEX
8
OBJECT__10
10
0
20
0
30
0
70
128
71
1
72
2
73
3
0
VERTEX
8
OBJECT__10
10
0
20
0
30
0
70
128
71
4
72
5
73
6
0
VERTEX
8
OBJECT__10
10
0
20
0
30
0
70
128
71
6
72
1
73
4
0
VERTEX
8
OBJECT__10
10
0
20
0
30
0
70
128
71
7
72
6
73
5
0
VERTEX
8
OBJECT__10
10
0
20
0
30
0
70
128
71
5
72
8
73
7
0
VERTEX
8
OBJECT__10
10
0
20
0
30
0
70
128
71
9
72
10
73
7
0
VERTEX
8
OBJECT__10
10
0
20
0
30
0
70
128
71
7
72
8
73
9
0
VERTEX
8
OBJECT__10
10
0
20
0
30
0
70
128
71
9
72
11
73
10
0
VERTEX
8
OBJECT__10
10
0
20
0
30
0
70
128
71
12
72
13
73
11
0
VERTEX
8
OBJECT__10
10
0
20
0
30
0
70
128
71
11
72
14
73
12
0
VERTEX
8
OBJECT__10
10
0
20
0
30
0
70
128
71
15
72
12
73
14
0
VERTEX
8
OBJECT__10
10
0
20
0
30
0
70
128
71
14
72
16
73
15
0
VERTEX
8
OBJECT__10
10
0
20
0
30
0
70
128
71
17
72
18
73
15
0
VERTEX
8
OBJECT__10
10
0
20
0
30
0
70
128
71
15
72
16
73
17
0
VERTEX
8
OBJECT__10
10
0
20
0
30
0
70
128
71
17
72
19
73
18
0
VERTEX
8
OBJECT__10
10
0
20
0
30
0
70
128
71
19
72
20
73
18
0
VERTEX
8
OBJECT__10
10
0
20
0
30
0
70
128
71
21
72
22
73
23
0
VERTEX
8
OBJECT__10
10
0
20
0
30
0
70
128
71
20
72
19
73
21
0
VERTEX
8
OBJECT__10
10
0
20
0
30
0
70
128
71
23
72
22
73
24
0
VERTEX
8
OBJECT__10
10
0
20
0
30
0
70
128
71
25
72
24
73
26
0
VERTEX
8
OBJECT__10
10
0
20
0
30
0
70
128
71
26
72
27
73
28
0
VERTEX
8
OBJECT__10
10
0
20
0
30
0
70
128
71
26
72
28
73
25
0
VERTEX
8
OBJECT__10
10
0
20
0
30
0
70
128
71
24
72
25
73
23
0
VERTEX
8
OBJECT__10
10
0
20
0
30
0
70
128
71
29
72
30
73
27
0
VERTEX
8
OBJECT__10
10
0
20
0
30
0
70
128
71
27
72
26
73
31
0
VERTEX
8
OBJECT__10
10
0
20
0
30
0
70
128
71
27
72
31
73
29
0
VERTEX
8
OBJECT__10
10
0
20
0
30
0
70
128
71
32
72
33
73
34
0
VERTEX
8
OBJECT__10
10
0
20
0
30
0
70
128
71
35
72
36
73
37
0
VERTEX
8
OBJECT__10
10
0
20
0
30
0
70
128
71
37
72
32
73
35
0
VERTEX
8
OBJECT__10
10
0
20
0
30
0
70
128
71
37
72
33
73
32
0
VERTEX
8
OBJECT__10
10
0
20
0
30
0
70
128
71
35
72
30
73
36
0
VERTEX
8
OBJECT__10
10
0
20
0
30
0
70
128
71
34
72
38
73
32
0
VERTEX
8
OBJECT__10
10
0
20
0
30
0
70
128
71
39
72
40
73
41
0
VERTEX
8
OBJECT__10
10
0
20
0
30
0
70
128
71
39
72
42
73
43
0
VERTEX
8
OBJECT__10
10
0
20
0
30
0
70
128
71
42
72
44
73
43
0
VERTEX
8
OBJECT__10
10
0
20
0
30
0
70
128
71
45
72
44
73
42
0
VERTEX
8
OBJECT__10
10
0
20
0
30
0
70
128
71
45
72
46
73
38
0
VERTEX
8
OBJECT__10
10
0
20
0
30
0
70
128
71
45
72
47
73
46
0
VERTEX
8
OBJECT__10
10
0
20
0
30
0
70
128
71
38
72
34
73
45
0
VERTEX
8
OBJECT__10
10
0
20
0
30
0
70
128
71
42
72
47
73
45
0
VERTEX
8
OBJECT__10
10
0
20
0
30
0
70
128
71
43
72
40
73
39
0
VERTEX
8
OBJECT__10
10
0
20
0
30
0
70
128
71
48
72
49
73
50
0
VERTEX
8
OBJECT__10
10
0
20
0
30
0
70
128
71
51
72
52
73
48
0
VERTEX
8
OBJECT__10
10
0
20
0
30
0
70
128
71
53
72
50
73
54
0
VERTEX
8
OBJECT__10
10
0
20
0
30
0
70
128
71
50
72
49
73
54
0
VERTEX
8
OBJECT__10
10
0
20
0
30
0
70
128
71
53
72
55
73
56
0
VERTEX
8
OBJECT__10
10
0
20
0
30
0
70
128
71
56
72
41
73
53
0
VERTEX
8
OBJECT__10
10
0
20
0
30
0
70
128
71
54
72
55
73
53
0
VERTEX
8
OBJECT__10
10
0
20
0
30
0
70
128
71
50
72
51
73
48
0
VERTEX
8
OBJECT__10
10
0
20
0
30
0
70
128
71
57
72
58
73
59
0
VERTEX
8
OBJECT__10
10
0
20
0
30
0
70
128
71
57
72
60
73
61
0
VERTEX
8
OBJECT__10
10
0
20
0
30
0
70
128
71
61
72
62
73
57
0
VERTEX
8
OBJECT__10
10
0
20
0
30
0
70
128
71
63
72
64
73
65
0
VERTEX
8
OBJECT__10
10
0
20
0
30
0
70
128
71
65
72
62
73
63
0
VERTEX
8
OBJECT__10
10
0
20
0
30
0
70
128
71
66
72
64
73
52
0
VERTEX
8
OBJECT__10
10
0
20
0
30
0
70
128
71
66
72
65
73
64
0
VERTEX
8
OBJECT__10
10
0
20
0
30
0
70
128
71
61
72
63
73
62
0
VERTEX
8
OBJECT__10
10
0
20
0
30
0
70
128
71
67
72
68
73
69
0
VERTEX
8
OBJECT__10
10
0
20
0
30
0
70
128
71
67
72
70
73
71
0
VERTEX
8
OBJECT__10
10
0
20
0
30
0
70
128
71
71
72
72
73
67
0
VERTEX
8
OBJECT__10
10
0
20
0
30
0
70
128
71
73
72
74
73
72
0
VERTEX
8
OBJECT__10
10
0
20
0
30
0
70
128
71
73
72
75
73
74
0
VERTEX
8
OBJECT__10
10
0
20
0
30
0
70
128
71
72
72
71
73
73
0
VERTEX
8
OBJECT__10
10
0
20
0
30
0
70
128
71
59
72
58
73
75
0
VERTEX
8
OBJECT__10
10
0
20
0
30
0
70
128
71
75
72
73
73
59
0
VERTEX
8
OBJECT__10
10
0
20
0
30
0
70
128
71
76
72
77
73
78
0
VERTEX
8
OBJECT__10
10
0
20
0
30
0
70
128
71
77
72
79
73
68
0
VERTEX
8
OBJECT__10
10
0
20
0
30
0
70
128
71
68
72
78
73
77
0
VERTEX
8
OBJECT__10
10
0
20
0
30
0
70
128
71
79
72
69
73
68
0
VERTEX
8
OBJECT__10
10
0
20
0
30
0
70
128
71
80
72
76
73
81
0
VERTEX
8
OBJECT__10
10
0
20
0
30
0
70
128
71
76
72
82
73
81
0
VERTEX
8
OBJECT__10
10
0
20
0
30
0
70
128
71
81
72
83
73
80
0
VERTEX
8
OBJECT__10
10
0
20
0
30
0
70
128
71
83
72
84
73
85
0
VERTEX
8
OBJECT__10
10
0
20
0
30
0
70
128
71
85
72
80
73
83
0
VERTEX
8
OBJECT__10
10
0
20
0
30
0
70
128
71
86
72
87
73
84
0
VERTEX
8
OBJECT__10
10
0
20
0
30
0
70
128
71
84
72
88
73
86
0
VERTEX
8
OBJECT__10
10
0
20
0
30
0
70
128
71
89
72
86
73
90
0
VERTEX
8
OBJECT__10
10
0
20
0
30
0
70
128
71
86
72
88
73
90
0
VERTEX
8
OBJECT__10
10
0
20
0
30
0
70
128
71
90
72
91
73
89
0
VERTEX
8
OBJECT__10
10
0
20
0
30
0
70
128
71
92
72
93
73
89
0
VERTEX
8
OBJECT__10
10
0
20
0
30
0
70
128
71
89
72
91
73
92
0
VERTEX
8
OBJECT__10
10
0
20
0
30
0
70
128
71
92
72
94
73
93
0
VERTEX
8
OBJECT__10
10
0
20
0
30
0
70
128
71
95
72
96
73
97
0
VERTEX
8
OBJECT__10
10
0
20
0
30
0
70
128
71
98
72
94
73
95
0
VERTEX
8
OBJECT__10
10
0
20
0
30
0
70
128
71
99
72
96
73
100
0
VERTEX
8
OBJECT__10
10
0
20
0
30
0
70
128
71
100
72
101
73
99
0
VERTEX
8
OBJECT__10
10
0
20
0
30
0
70
128
71
100
72
102
73
101
0
VERTEX
8
OBJECT__10
10
0
20
0
30
0
70
128
71
99
72
97
73
96
0
VERTEX
8
OBJECT__10
10
0
20
0
30
0
70
128
71
102
72
103
73
101
0
VERTEX
8
OBJECT__10
10
0
20
0
30
0
70
128
71
97
72
98
73
95
0
VERTEX
8
OBJECT__10
10
0
20
0
30
0
70
128
71
104
72
105
73
103
0
VERTEX
8
OBJECT__10
10
0
20
0
30
0
70
128
71
105
72
104
73
106
0
VERTEX
8
OBJECT__10
10
0
20
0
30
0
70
128
71
106
72
107
73
105
0
VERTEX
8
OBJECT__10
10
0
20
0
30
0
70
128
71
107
72
108
73
109
0
VERTEX
8
OBJECT__10
10
0
20
0
30
0
70
128
71
109
72
110
73
111
0
VERTEX
8
OBJECT__10
10
0
20
0
30
0
70
128
71
109
72
111
73
107
0
VERTEX
8
OBJECT__10
10
0
20
0
30
0
70
128
71
106
72
108
73
107
0
VERTEX
8
OBJECT__10
10
0
20
0
30
0
70
128
71
103
72
102
73
104
0
VERTEX
8
OBJECT__10
10
0
20
0
30
0
70
128
71
98
72
93
73
94
0
VERTEX
8
OBJECT__10
10
0
20
0
30
0
70
128
71
87
72
85
73
84
0
VERTEX
8
OBJECT__10
10
0
20
0
30
0
70
128
71
78
72
82
73
76
0
VERTEX
8
OBJECT__10
10
0
20
0
30
0
70
128
71
69
72
70
73
67
0
VERTEX
8
OBJECT__10
10
0
20
0
30
0
70
128
71
59
72
60
73
57
0
VERTEX
8
OBJECT__10
10
0
20
0
30
0
70
128
71
51
72
66
73
52
0
VERTEX
8
OBJECT__10
10
0
20
0
30
0
70
128
71
41
72
56
73
39
0
VERTEX
8
OBJECT__10
10
0
20
0
30
0
70
128
71
29
72
36
73
30
0
VERTEX
8
OBJECT__10
10
0
20
0
30
0
70
128
71
23
72
20
73
21
0
VERTEX
8
OBJECT__10
10
0
20
0
30
0
70
128
71
13
72
10
73
11
0
VERTEX
8
OBJECT__10
10
0
20
0
30
0
70
128
71
3
72
4
73
1
0
SEQEND
8
OBJECT__10
0
POLYLINE
8
OBJECT__11
66
1
70
64
71
36
72
34
62
253
0
VERTEX
8
OBJECT__11
10
67.204002
20
-9.250000
30
2.293000
70
192
0
VERTEX
8
OBJECT__11
10
67.180000
20
-9.250000
30
4.988000
70
192
0
VERTEX
8
OBJECT__11
10
69.195999
20
-9.250000
30
3.836000
70
192
0
VERTEX
8
OBJECT__11
10
67.185997
20
-9.250000
30
-4.859000
70
192
0
VERTEX
8
OBJECT__11
10
69.171997
20
-9.250000
30
-6.082000
70
192
0
VERTEX
8
OBJECT__11
10
69.166000
20
-9.250000
30
-6.713000
70
192
0
VERTEX
8
OBJECT__11
10
69.110001
20
-9.250000
30
-9.863000
70
192
0
VERTEX
8
OBJECT__11
10
67.133003
20
-9.250000
30
-8.783000
70
192
0
VERTEX
8
OBJECT__11
10
67.139999
20
-9.250000
30
-8.230000
70
192
0
VERTEX
8
OBJECT__11
10
69.168999
20
-9.250000
30
6.149000
70
192
0
VERTEX
8
OBJECT__11
10
67.207001
20
-9.250000
30
0.000000
70
192
0
VERTEX
8
OBJECT__11
10
67.207001
20
-9.250000
30
1.926000
70
192
0
VERTEX
8
OBJECT__11
10
69.207001
20
-9.250000
30
1.093000
70
192
0
VERTEX
8
OBJECT__11
10
69.210999
20
-9.250000
30
0.000000
70
192
0
VERTEX
8
OBJECT__11
10
69.207001
20
-9.250000
30
-1.093000
70
192
0
VERTEX
8
OBJECT__11
10
67.189003
20
-9.250000
30
-4.593000
70
192
0
VERTEX
8
OBJECT__11
10
67.204002
20
-9.250000
30
-2.285000
70
192
0
VERTEX
8
OBJECT__11
10
69.197998
20
-9.250000
30
-3.374000
70
192
0
VERTEX
8
OBJECT__11
10
67.114998
20
-9.250000
30
9.730000
70
192
0
VERTEX
8
OBJECT__11
10
67.041000
20
-9.250000
30
12.972000
70
192
0
VERTEX
8
OBJECT__11
10
69.078003
20
-9.250000
30
11.508000
70
192
0
VERTEX
8
OBJECT__11
10
69.110001
20
-9.250000
30
9.854000
70
192
0
VERTEX
8
OBJECT__11
10
69.152000
20
-9.250000
30
7.672000
70
192
0
VERTEX
8
OBJECT__11
10
67.140999
20
-9.250000
30
8.224000
70
192
0
VERTEX
8
OBJECT__11
10
69.197998
20
-9.250000
30
3.374000
70
192
0
VERTEX
8
OBJECT__11
10
67.207001
20
-9.250000
30
-1.799000
70
192
0
VERTEX
8
OBJECT__11
10
69.195999
20
-9.250000
30
-3.836000
70
192
0
VERTEX
8
OBJECT__11
10
68.974998
20
-9.250000
30
15.343000
70
192
0
VERTEX
8
OBJECT__11
10
67.163002
20
-9.250000
30
6.892000
70
192
0
VERTEX
8
OBJECT__11
10
69.088997
20
-9.250000
30
-11.029000
70
192
0
VERTEX
8
OBJECT__11
10
67.041000
20
-9.250000
30
-12.972000
70
192
0
VERTEX
8
OBJECT__11
10
68.974998
20
-9.250000
30
-15.343000
70
192
0
VERTEX
8
OBJECT__11
10
63.408001
20
-9.250000
30
15.400000
70
192
0
VERTEX
8
OBJECT__11
10
60.176998
20
-9.250000
30
-15.432000
70
192
0
VERTEX
8
OBJECT__11
10
60.176998
20
-9.250000
30
-13.046000
70
192
0
VERTEX
8
OBJECT__11
10
63.408001
20
-9.250000
30
13.011000
70
192
0
VERTEX
8
OBJECT__11
10
0
20
0
30
0
70
128
71
1
72
2
73
3
0
VERTEX
8
OBJECT__11
10
0
20
0
30
0
70
128
71
4
72
5
73
6
0
VERTEX
8
OBJECT__11
10
0
20
0
30
0
70
128
71
7
72
8
73
9
0
VERTEX
8
OBJECT__11
10
0
20
0
30
0
70
128
71
2
72
10
73
3
0
VERTEX
8
OBJECT__11
10
0
20
0
30
0
70
128
71
11
72
12
73
13
0
VERTEX
8
OBJECT__11
10
0
20
0
30
0
70
128
71
11
72
14
73
15
0
VERTEX
8
OBJECT__11
10
0
20
0
30
0
70
128
71
16
72
17
73
18
0
VERTEX
8
OBJECT__11
10
0
20
0
30
0
70
128
71
15
72
18
73
17
0
VERTEX
8
OBJECT__11
10
0
20
0
30
0
70
128
71
9
72
6
73
7
0
VERTEX
8
OBJECT__11
10
0
20
0
30
0
70
128
71
19
72
20
73
21
0
VERTEX
8
OBJECT__11
10
0
20
0
30
0
70
128
71
22
72
23
73
24
0
VERTEX
8
OBJECT__11
10
0
20
0
30
0
70
128
71
3
72
25
73
1
0
VERTEX
8
OBJECT__11
10
0
20
0
30
0
70
128
71
15
72
26
73
11
0
VERTEX
8
OBJECT__11
10
0
20
0
30
0
70
128
71
17
72
26
73
15
0
VERTEX
8
OBJECT__11
10
0
20
0
30
0
70
128
71
4
72
27
73
5
0
VERTEX
8
OBJECT__11
10
0
20
0
30
0
70
128
71
20
72
28
73
21
0
VERTEX
8
OBJECT__11
10
0
20
0
30
0
70
128
71
23
72
29
73
24
0
VERTEX
8
OBJECT__11
10
0
20
0
30
0
70
128
71
29
72
23
73
10
0
VERTEX
8
OBJECT__11
10
0
20
0
30
0
70
128
71
13
72
12
73
1
0
VERTEX
8
OBJECT__11
10
0
20
0
30
0
70
128
71
18
72
27
73
16
0
VERTEX
8
OBJECT__11
10
0
20
0
30
0
70
128
71
6
72
9
73
4
0
VERTEX
8
OBJECT__11
10
0
20
0
30
0
70
128
71
8
72
7
73
30
0
VERTEX
8
OBJECT__11
10
0
20
0
30
0
70
128
71
24
72
19
73
22
0
VERTEX
8
OBJECT__11
10
0
20
0
30
0
70
128
71
1
72
25
73
13
0
VERTEX
8
OBJECT__11
10
0
20
0
30
0
70
128
71
4
72
16
73
27
0
VERTEX
8
OBJECT__11
10
0
20
0
30
0
70
128
71
30
72
31
73
8
0
VERTEX
8
OBJECT__11
10
0
20
0
30
0
70
128
71
2
72
29
73
10
0
VERTEX
8
OBJECT__11
10
0
20
0
30
0
70
128
71
30
72
32
73
31
0
VERTEX
8
OBJECT__11
10
0
20
0
30
0
70
128
71
33
72
28
73
20
0
VERTEX
8
OBJECT__11
10
0
20
0
30
0
70
128
71
13
72
14
73
11
0
VERTEX
8
OBJECT__11
10
0
20
0
30
0
70
128
71
21
72
22
73
19
0
VERTEX
8
OBJECT__11
10
0
20
0
30
0
70
128
71
34
72
35
73
31
0
VERTEX
8
OBJECT__11
10
0
20
0
30
0
70
128
71
31
72
32
73
34
0
VERTEX
8
OBJECT__11
10
0
20
0
30
0
70
128
71
20
72
36
73
33
0
SEQEND
8
OBJECT__11
0
POLYLINE
8
OBJECT__12
66
1
70
64
71
31
72
29
62
253
0
VERTEX
8
OBJECT__12
10
68.974998
20
-12.361000
30
-12.968000
70
192
0
VERTEX
8
OBJECT__12
10
68.974998
20
-10.939000
30
-14.053000
70
192
0
VERTEX
8
OBJECT__12
10
69.088997
20
-9.250000
30
-11.029000
70
192
0
VERTEX
8
OBJECT__12
10
69.110001
20
-9.250000
30
-9.863000
70
192
0
VERTEX
8
OBJECT__12
10
69.166000
20
-9.250000
30
-6.713000
70
192
0
VERTEX
8
OBJECT__12
10
68.974998
20
-15.004000
30
-9.790000
70
192
0
VERTEX
8
OBJECT__12
10
68.974998
20
-14.997000
30
-9.798000
70
192
0
VERTEX
8
OBJECT__12
10
69.171997
20
-9.250000
30
-6.082000
70
192
0
VERTEX
8
OBJECT__12
10
68.974998
20
-16.849001
30
-6.090000
70
192
0
VERTEX
8
OBJECT__12
10
69.195999
20
-9.250000
30
-3.836000
70
192
0
VERTEX
8
OBJECT__12
10
68.974998
20
-17.796000
30
-2.067000
70
192
0
VERTEX
8
OBJECT__12
10
68.974998
20
-17.253000
30
-4.371000
70
192
0
VERTEX
8
OBJECT__12
10
69.197998
20
-9.250000
30
-3.374000
70
192
0
VERTEX
8
OBJECT__12
10
69.207001
20
-9.250000
30
-1.093000
70
192
0
VERTEX
8
OBJECT__12
10
69.210999
20
-9.250000
30
0.000000
70
192
0
VERTEX
8
OBJECT__12
10
68.974998
20
-17.796000
30
1.479000
70
192
0
VERTEX
8
OBJECT__12
10
69.207001
20
-9.250000
30
1.093000
70
192
0
VERTEX
8
OBJECT__12
10
68.974998
20
-17.796000
30
2.067000
70
192
0
VERTEX
8
OBJECT__12
10
69.197998
20
-9.250000
30
3.374000
70
192
0
VERTEX
8
OBJECT__12
10
68.974998
20
-16.849001
30
6.090000
70
192
0
VERTEX
8
OBJECT__12
10
69.195999
20
-9.250000
30
3.836000
70
192
0
VERTEX
8
OBJECT__12
10
68.974998
20
-16.319000
30
7.153000
70
192
0
VERTEX
8
OBJECT__12
10
69.168999
20
-9.250000
30
6.149000
70
192
0
VERTEX
8
OBJECT__12
10
68.974998
20
-15.004000
30
9.790000
70
192
0
VERTEX
8
OBJECT__12
10
69.152000
20
-9.250000
30
7.672000
70
192
0
VERTEX
8
OBJECT__12
10
68.974998
20
-13.106000
30
12.072000
70
192
0
VERTEX
8
OBJECT__12
10
69.110001
20
-9.250000
30
9.854000
70
192
0
VERTEX
8
OBJECT__12
10
68.974998
20
-12.361000
30
12.968000
70
192
0
VERTEX
8
OBJECT__12
10
69.078003
20
-9.250000
30
11.508000
70
192
0
VERTEX
8
OBJECT__12
10
68.974998
20
-9.250000
30
15.343000
70
192
0
VERTEX
8
OBJECT__12
10
68.974998
20
-9.250000
30
-15.343000
70
192
0
VERTEX
8
OBJECT__12
10
0
20
0
30
0
70
128
71
1
72
2
73
3
0
VERTEX
8
OBJECT__12
10
0
20
0
30
0
70
128
71
3
72
4
73
1
0
VERTEX
8
OBJECT__12
10
0
20
0
30
0
70
128
71
5
72
6
73
7
0
VERTEX
8
OBJECT__12
10
0
20
0
30
0
70
128
71
7
72
4
73
5
0
VERTEX
8
OBJECT__12
10
0
20
0
30
0
70
128
71
5
72
8
73
6
0
VERTEX
8
OBJECT__12
10
0
20
0
30
0
70
128
71
7
72
1
73
4
0
VERTEX
8
OBJECT__12
10
0
20
0
30
0
70
128
71
9
72
6
73
8
0
VERTEX
8
OBJECT__12
10
0
20
0
30
0
70
128
71
8
72
10
73
9
0
VERTEX
8
OBJECT__12
10
0
20
0
30
0
70
128
71
11
72
12
73
13
0
VERTEX
8
OBJECT__12
10
0
20
0
30
0
70
128
71
13
72
14
73
11
0
VERTEX
8
OBJECT__12
10
0
20
0
30
0
70
128
71
11
72
14
73
15
0
VERTEX
8
OBJECT__12
10
0
20
0
30
0
70
128
71
15
72
16
73
11
0
VERTEX
8
OBJECT__12
10
0
20
0
30
0
70
128
71
17
72
18
73
16
0
VERTEX
8
OBJECT__12
10
0
20
0
30
0
70
128
71
18
72
17
73
19
0
VERTEX
8
OBJECT__12
10
0
20
0
30
0
70
128
71
20
72
19
73
21
0
VERTEX
8
OBJECT__12
10
0
20
0
30
0
70
128
71
22
72
21
73
23
0
VERTEX
8
OBJECT__12
10
0
20
0
30
0
70
128
71
23
72
24
73
22
0
VERTEX
8
OBJECT__12
10
0
20
0
30
0
70
128
71
24
72
23
73
25
0
VERTEX
8
OBJECT__12
10
0
20
0
30
0
70
128
71
26
72
25
73
27
0
VERTEX
8
OBJECT__12
10
0
20
0
30
0
70
128
71
27
72
28
73
26
0
VERTEX
8
OBJECT__12
10
0
20
0
30
0
70
128
71
28
72
27
73
29
0
VERTEX
8
OBJECT__12
10
0
20
0
30
0
70
128
71
29
72
30
73
28
0
VERTEX
8
OBJECT__12
10
0
20
0
30
0
70
128
71
25
72
26
73
24
0
VERTEX
8
OBJECT__12
10
0
20
0
30
0
70
128
71
21
72
22
73
20
0
VERTEX
8
OBJECT__12
10
0
20
0
30
0
70
128
71
19
72
20
73
18
0
VERTEX
8
OBJECT__12
10
0
20
0
30
0
70
128
71
15
72
17
73
16
0
VERTEX
8
OBJECT__12
10
0
20
0
30
0
70
128
71
12
72
9
73
13
0
VERTEX
8
OBJECT__12
10
0
20
0
30
0
70
128
71
10
72
13
73
9
0
VERTEX
8
OBJECT__12
10
0
20
0
30
0
70
128
71
2
72
31
73
3
0
SEQEND
8
OBJECT__12
0
POLYLINE
8
OBJECT__13
66
1
70
64
71
150
72
150
62
253
0
VERTEX
8
OBJECT__13
10
2.000000
20
-15.488000
30
-10.119000
70
192
0
VERTEX
8
OBJECT__13
10
2.000000
20
-11.363000
30
-14.599000
70
192
0
VERTEX
8
OBJECT__13
10
68.974998
20
-12.361000
30
-12.968000
70
192
0
VERTEX
8
OBJECT__13
10
68.974998
20
-10.939000
30
-14.053000
70
192
0
VERTEX
8
OBJECT__13
10
2.000000
20
-17.934000
30
-4.541000
70
192
0
VERTEX
8
OBJECT__13
10
68.974998
20
-15.004000
30
-9.790000
70
192
0
VERTEX
8
OBJECT__13
10
68.974998
20
-16.849001
30
-6.090000
70
192
0
VERTEX
8
OBJECT__13
10
68.974998
20
-14.997000
30
-9.798000
70
192
0
VERTEX
8
OBJECT__13
10
68.974998
20
-17.253000
30
-4.371000
70
192
0
VERTEX
8
OBJECT__13
10
68.974998
20
-17.796000
30
1.479000
70
192
0
VERTEX
8
OBJECT__13
10
2.000000
20
-18.437000
30
1.528000
70
192
0
VERTEX
8
OBJECT__13
10
2.000000
20
-18.500000
30
0.000000
70
192
0
VERTEX
8
OBJECT__13
10
68.974998
20
-17.796000
30
-2.067000
70
192
0
VERTEX
8
OBJECT__13
10
68.974998
20
-17.796000
30
2.067000
70
192
0
VERTEX
8
OBJECT__13
10
68.974998
20
-16.849001
30
6.090000
70
192
0
VERTEX
8
OBJECT__13
10
2.000000
20
-16.941999
30
7.431000
70
192
0
VERTEX
8
OBJECT__13
10
2.000000
20
-13.611000
30
12.530000
70
192
0
VERTEX
8
OBJECT__13
10
68.974998
20
-15.004000
30
9.790000
70
192
0
VERTEX
8
OBJECT__13
10
68.974998
20
-16.319000
30
7.153000
70
192
0
VERTEX
8
OBJECT__13
10
2.000000
20
13.611000
30
12.530000
70
192
0
VERTEX
8
OBJECT__13
10
68.974998
20
13.106000
30
12.072000
70
192
0
VERTEX
8
OBJECT__13
10
68.974998
20
15.004000
30
9.790000
70
192
0
VERTEX
8
OBJECT__13
10
2.000000
20
16.941999
30
7.431000
70
192
0
VERTEX
8
OBJECT__13
10
2.000000
20
18.437000
30
1.528000
70
192
0
VERTEX
8
OBJECT__13
10
68.974998
20
16.849001
30
6.090000
70
192
0
VERTEX
8
OBJECT__13
10
68.974998
20
16.319000
30
7.153000
70
192
0
VERTEX
8
OBJECT__13
10
68.974998
20
17.796000
30
2.067000
70
192
0
VERTEX
8
OBJECT__13
10
68.974998
20
17.796000
30
1.479000
70
192
0
VERTEX
8
OBJECT__13
10
68.974998
20
17.796000
30
-2.067000
70
192
0
VERTEX
8
OBJECT__13
10
2.000000
20
17.934000
30
-4.541000
70
192
0
VERTEX
8
OBJECT__13
10
2.000000
20
15.488000
30
-10.119000
70
192
0
VERTEX
8
OBJECT__13
10
68.974998
20
16.849001
30
-6.090000
70
192
0
VERTEX
8
OBJECT__13
10
68.974998
20
17.253000
30
-4.371000
70
192
0
VERTEX
8
OBJECT__13
10
68.974998
20
15.004000
30
-9.790000
70
192
0
VERTEX
8
OBJECT__13
10
68.974998
20
14.997000
30
-9.798000
70
192
0
VERTEX
8
OBJECT__13
10
68.974998
20
12.361000
30
-12.968000
70
192
0
VERTEX
8
OBJECT__13
10
2.000000
20
11.363000
30
-14.599000
70
192
0
VERTEX
8
OBJECT__13
10
46.527000
20
6.369000
30
-16.954000
70
192
0
VERTEX
8
OBJECT__13
10
46.219002
20
5.877000
30
-17.118000
70
192
0
VERTEX
8
OBJECT__13
10
48.396999
20
8.292000
30
-16.083000
70
192
0
VERTEX
8
OBJECT__13
10
47.872002
20
7.832000
30
-16.313999
70
192
0
VERTEX
8
OBJECT__13
10
49.493999
20
9.058000
30
-15.654000
70
192
0
VERTEX
8
OBJECT__13
10
47.646000
20
7.634000
30
-16.413000
70
192
0
VERTEX
8
OBJECT__13
10
51.009998
20
9.820000
30
-15.171000
70
192
0
VERTEX
8
OBJECT__13
10
52.216999
20
10.228000
30
-14.887000
70
192
0
VERTEX
8
OBJECT__13
10
51.650002
20
10.036000
30
-15.020000
70
192
0
VERTEX
8
OBJECT__13
10
53.966999
20
10.550000
30
-14.642000
70
192
0
VERTEX
8
OBJECT__13
10
53.791000
20
10.531000
30
-14.657000
70
192
0
VERTEX
8
OBJECT__13
10
68.974998
20
10.939000
30
-14.053000
70
192
0
VERTEX
8
OBJECT__13
10
55.526001
20
10.587000
30
-14.598000
70
192
0
VERTEX
8
OBJECT__13
10
57.084000
20
10.393000
30
-14.720000
70
192
0
VERTEX
8
OBJECT__13
10
55.992001
20
10.529000
30
-14.634000
70
192
0
VERTEX
8
OBJECT__13
10
68.974998
20
9.250000
30
-15.343000
70
192
0
VERTEX
8
OBJECT__13
10
60.176998
20
9.250000
30
-15.432000
70
192
0
VERTEX
8
OBJECT__13
10
60.096001
20
9.295000
30
-15.406000
70
192
0
VERTEX
8
OBJECT__13
10
58.632000
20
9.958000
30
-15.001000
70
192
0
VERTEX
8
OBJECT__13
10
2.000000
20
6.007000
30
-17.497999
70
192
0
VERTEX
8
OBJECT__13
10
44.492001
20
1.395000
30
-18.075001
70
192
0
VERTEX
8
OBJECT__13
10
44.414001
20
0.000000
30
-18.121000
70
192
0
VERTEX
8
OBJECT__13
10
44.941002
20
3.344000
30
-17.813999
70
192
0
VERTEX
8
OBJECT__13
10
44.549999
20
1.779000
30
-18.041000
70
192
0
VERTEX
8
OBJECT__13
10
45.567001
20
4.836000
30
-17.462999
70
192
0
VERTEX
8
OBJECT__13
10
45.332001
20
4.274000
30
-17.594999
70
192
0
VERTEX
8
OBJECT__13
10
2.000000
20
-6.007000
30
-17.497999
70
192
0
VERTEX
8
OBJECT__13
10
44.987999
20
-3.481000
30
-17.787001
70
192
0
VERTEX
8
OBJECT__13
10
45.325001
20
-4.277000
30
-17.598000
70
192
0
VERTEX
8
OBJECT__13
10
44.570999
20
-1.894000
30
-18.028999
70
192
0
VERTEX
8
OBJECT__13
10
45.530998
20
-4.765000
30
-17.482000
70
192
0
VERTEX
8
OBJECT__13
10
2.000000
20
0.000000
30
-18.500000
70
192
0
VERTEX
8
OBJECT__13
10
44.402000
20
-0.220000
30
-18.129000
70
192
0
VERTEX
8
OBJECT__13
10
59.264000
20
-9.704000
30
-15.160000
70
192
0
VERTEX
8
OBJECT__13
10
60.176998
20
-9.250000
30
-15.432000
70
192
0
VERTEX
8
OBJECT__13
10
58.075001
20
-10.144000
30
-14.882000
70
192
0
VERTEX
8
OBJECT__13
10
56.506001
20
-10.492000
30
-14.656000
70
192
0
VERTEX
8
OBJECT__13
10
54.798000
20
-10.598000
30
-14.598000
70
192
0
VERTEX
8
OBJECT__13
10
55.993000
20
-10.524000
30
-14.638000
70
192
0
VERTEX
8
OBJECT__13
10
50.213001
20
-9.458000
30
-15.408000
70
192
0
VERTEX
8
OBJECT__13
10
51.645000
20
-10.051000
30
-15.012000
70
192
0
VERTEX
8
OBJECT__13
10
47.354000
20
-7.342000
30
-16.549000
70
192
0
VERTEX
8
OBJECT__13
10
47.888000
20
-7.814000
30
-16.313999
70
192
0
VERTEX
8
OBJECT__13
10
46.209000
20
-5.878000
30
-17.122000
70
192
0
VERTEX
8
OBJECT__13
10
46.415001
20
-6.218000
30
-17.011999
70
192
0
VERTEX
8
OBJECT__13
10
48.638000
20
-8.479000
30
-15.983000
70
192
0
VERTEX
8
OBJECT__13
10
51.692001
20
-10.071000
30
-14.999000
70
192
0
VERTEX
8
OBJECT__13
10
53.235001
20
-10.452000
30
-14.719000
70
192
0
VERTEX
8
OBJECT__13
10
46.043999
20
-8.674000
30
15.887000
70
192
0
VERTEX
8
OBJECT__13
10
45.984001
20
-8.616000
30
15.921000
70
192
0
VERTEX
8
OBJECT__13
10
46.986000
20
-9.593000
30
15.358000
70
192
0
VERTEX
8
OBJECT__13
10
48.738998
20
-10.819000
30
14.501000
70
192
0
VERTEX
8
OBJECT__13
10
48.515999
20
-10.687000
30
14.601000
70
192
0
VERTEX
8
OBJECT__13
10
50.355000
20
-11.605000
30
13.861000
70
192
0
VERTEX
8
OBJECT__13
10
49.952999
20
-11.409000
30
14.020000
70
192
0
VERTEX
8
OBJECT__13
10
52.032001
20
-12.143000
30
13.373000
70
192
0
VERTEX
8
OBJECT__13
10
53.536999
20
-12.414000
30
13.104000
70
192
0
VERTEX
8
OBJECT__13
10
55.157001
20
-12.499000
30
13.003000
70
192
0
VERTEX
8
OBJECT__13
10
54.604000
20
-12.470000
30
13.037000
70
192
0
VERTEX
8
OBJECT__13
10
68.974998
20
-13.106000
30
12.072000
70
192
0
VERTEX
8
OBJECT__13
10
60.237000
20
-11.350000
30
13.960000
70
192
0
VERTEX
8
OBJECT__13
10
59.311001
20
-11.703000
30
13.671000
70
192
0
VERTEX
8
OBJECT__13
10
58.640999
20
-11.958000
30
13.462000
70
192
0
VERTEX
8
OBJECT__13
10
58.266998
20
-12.066000
30
13.370000
70
192
0
VERTEX
8
OBJECT__13
10
68.974998
20
-12.361000
30
12.968000
70
192
0
VERTEX
8
OBJECT__13
10
68.974998
20
-9.250000
30
15.343000
70
192
0
VERTEX
8
OBJECT__13
10
63.408001
20
-9.250000
30
15.400000
70
192
0
VERTEX
8
OBJECT__13
10
61.933998
20
-10.401000
30
14.663000
70
192
0
VERTEX
8
OBJECT__13
10
61.749001
20
-10.522000
30
14.578000
70
192
0
VERTEX
8
OBJECT__13
10
56.695000
20
-12.385000
30
13.094000
70
192
0
VERTEX
8
OBJECT__13
10
2.000000
20
-8.805000
30
16.270000
70
192
0
VERTEX
8
OBJECT__13
10
43.250000
20
-4.265000
30
17.632000
70
192
0
VERTEX
8
OBJECT__13
10
42.882000
20
-2.984000
30
17.882999
70
192
0
VERTEX
8
OBJECT__13
10
43.687000
20
-5.316000
30
17.340000
70
192
0
VERTEX
8
OBJECT__13
10
43.424999
20
-4.687000
30
17.514000
70
192
0
VERTEX
8
OBJECT__13
10
44.540001
20
-6.844000
30
16.787001
70
192
0
VERTEX
8
OBJECT__13
10
45.606998
20
-8.247000
30
16.134001
70
192
0
VERTEX
8
OBJECT__13
10
2.000000
20
-3.045000
30
18.247999
70
192
0
VERTEX
8
OBJECT__13
10
42.526001
20
-0.800000
30
18.129000
70
192
0
VERTEX
8
OBJECT__13
10
42.528999
20
0.000000
30
18.125999
70
192
0
VERTEX
8
OBJECT__13
10
2.000000
20
3.045000
30
18.247999
70
192
0
VERTEX
8
OBJECT__13
10
42.778999
20
-2.626000
30
17.952999
70
192
0
VERTEX
8
OBJECT__13
10
42.534000
20
0.916000
30
18.122999
70
192
0
VERTEX
8
OBJECT__13
10
42.808998
20
2.763000
30
17.931999
70
192
0
VERTEX
8
OBJECT__13
10
2.000000
20
8.805000
30
16.270000
70
192
0
VERTEX
8
OBJECT__13
10
43.316002
20
4.443000
30
17.587000
70
192
0
VERTEX
8
OBJECT__13
10
43.426998
20
4.686000
30
17.513000
70
192
0
VERTEX
8
OBJECT__13
10
43.998001
20
5.933000
30
17.136000
70
192
0
VERTEX
8
OBJECT__13
10
42.875999
20
2.984000
30
17.886999
70
192
0
VERTEX
8
OBJECT__13
10
44.984001
20
7.479000
30
16.510000
70
192
0
VERTEX
8
OBJECT__13
10
68.974998
20
12.361000
30
12.968000
70
192
0
VERTEX
8
OBJECT__13
10
63.056999
20
9.557000
30
15.214000
70
192
0
VERTEX
8
OBJECT__13
10
63.408001
20
9.250000
30
15.400000
70
192
0
VERTEX
8
OBJECT__13
10
68.974998
20
9.250000
30
15.343000
70
192
0
VERTEX
8
OBJECT__13
10
61.542999
20
10.651000
30
14.486000
70
192
0
VERTEX
8
OBJECT__13
10
58.668999
20
11.949000
30
13.469000
70
192
0
VERTEX
8
OBJECT__13
10
59.314999
20
11.713000
30
13.664000
70
192
0
VERTEX
8
OBJECT__13
10
59.901001
20
11.499000
30
13.841000
70
192
0
VERTEX
8
OBJECT__13
10
56.763000
20
12.375000
30
13.102000
70
192
0
VERTEX
8
OBJECT__13
10
57.030998
20
12.334000
30
13.137000
70
192
0
VERTEX
8
OBJECT__13
10
55.165001
20
12.499000
30
13.003000
70
192
0
VERTEX
8
OBJECT__13
10
54.604000
20
12.470000
30
13.037000
70
192
0
VERTEX
8
OBJECT__13
10
53.551998
20
12.416000
30
13.102000
70
192
0
VERTEX
8
OBJECT__13
10
49.863998
20
11.396000
30
14.039000
70
192
0
VERTEX
8
OBJECT__13
10
49.943001
20
11.430000
30
14.010000
70
192
0
VERTEX
8
OBJECT__13
10
48.284000
20
10.542000
30
14.708000
70
192
0
VERTEX
8
OBJECT__13
10
50.289001
20
11.578000
30
13.885000
70
192
0
VERTEX
8
OBJECT__13
10
45.970001
20
8.618000
30
15.925000
70
192
0
VERTEX
8
OBJECT__13
10
46.030998
20
8.689000
30
15.889000
70
192
0
VERTEX
8
OBJECT__13
10
46.153999
20
8.832000
30
15.816000
70
192
0
VERTEX
8
OBJECT__13
10
46.826000
20
9.457000
30
15.443000
70
192
0
VERTEX
8
OBJECT__13
10
51.844002
20
12.095000
30
13.418000
70
192
0
VERTEX
8
OBJECT__13
10
68.974998
20
-9.250000
30
-15.343000
70
192
0
VERTEX
8
OBJECT__13
10
0
20
0
30
0
70
128
71
1
72
2
73
3
0
VERTEX
8
OBJECT__13
10
0
20
0
30
0
70
128
71
2
72
4
73
3
0
VERTEX
8
OBJECT__13
10
0
20
0
30
0
70
128
71
5
72
6
73
7
0
VERTEX
8
OBJECT__13
10
0
20
0
30
0
70
128
71
1
72
8
73
6
0
VERTEX
8
OBJECT__13
10
0
20
0
30
0
70
128
71
6
72
5
73
1
0
VERTEX
8
OBJECT__13
10
0
20
0
30
0
70
128
71
7
72
9
73
5
0
VERTEX
8
OBJECT__13
10
0
20
0
30
0
70
128
71
10
72
11
73
12
0
VERTEX
8
OBJECT__13
10
0
20
0
30
0
70
128
71
5
72
9
73
13
0
VERTEX
8
OBJECT__13
10
0
20
0
30
0
70
128
71
13
72
12
73
5
0
VERTEX
8
OBJECT__13
10
0
20
0
30
0
70
128
71
11
72
14
73
15
0
VERTEX
8
OBJECT__13
10
0
20
0
30
0
70
128
71
15
72
16
73
11
0
VERTEX
8
OBJECT__13
10
0
20
0
30
0
70
128
71
11
72
10
73
14
0
VERTEX
8
OBJECT__13
10
0
20
0
30
0
70
128
71
17
72
16
73
18
0
VERTEX
8
OBJECT__13
10
0
20
0
30
0
70
128
71
16
72
19
73
18
0
VERTEX
8
OBJECT__13
10
0
20
0
30
0
70
128
71
20
72
21
73
22
0
VERTEX
8
OBJECT__13
10
0
20
0
30
0
70
128
71
22
72
23
73
20
0
VERTEX
8
OBJECT__13
10
0
20
0
30
0
70
128
71
24
72
23
73
25
0
VERTEX
8
OBJECT__13
10
0
20
0
30
0
70
128
71
23
72
26
73
25
0
VERTEX
8
OBJECT__13
10
0
20
0
30
0
70
128
71
25
72
27
73
24
0
VERTEX
8
OBJECT__13
10
0
20
0
30
0
70
128
71
24
72
28
73
29
0
VERTEX
8
OBJECT__13
10
0
20
0
30
0
70
128
71
29
72
30
73
24
0
VERTEX
8
OBJECT__13
10
0
20
0
30
0
70
128
71
31
72
30
73
32
0
VERTEX
8
OBJECT__13
10
0
20
0
30
0
70
128
71
30
72
33
73
32
0
VERTEX
8
OBJECT__13
10
0
20
0
30
0
70
128
71
32
72
34
73
31
0
VERTEX
8
OBJECT__13
10
0
20
0
30
0
70
128
71
31
72
35
73
36
0
VERTEX
8
OBJECT__13
10
0
20
0
30
0
70
128
71
36
72
37
73
31
0
VERTEX
8
OBJECT__13
10
0
20
0
30
0
70
128
71
37
72
38
73
39
0
VERTEX
8
OBJECT__13
10
0
20
0
30
0
70
128
71
37
72
40
73
41
0
VERTEX
8
OBJECT__13
10
0
20
0
30
0
70
128
71
37
72
42
73
40
0
VERTEX
8
OBJECT__13
10
0
20
0
30
0
70
128
71
41
72
43
73
37
0
VERTEX
8
OBJECT__13
10
0
20
0
30
0
70
128
71
37
72
44
73
42
0
VERTEX
8
OBJECT__13
10
0
20
0
30
0
70
128
71
43
72
38
73
37
0
VERTEX
8
OBJECT__13
10
0
20
0
30
0
70
128
71
37
72
45
73
46
0
VERTEX
8
OBJECT__13
10
0
20
0
30
0
70
128
71
46
72
44
73
37
0
VERTEX
8
OBJECT__13
10
0
20
0
30
0
70
128
71
37
72
47
73
48
0
VERTEX
8
OBJECT__13
10
0
20
0
30
0
70
128
71
37
72
49
73
50
0
VERTEX
8
OBJECT__13
10
0
20
0
30
0
70
128
71
50
72
47
73
37
0
VERTEX
8
OBJECT__13
10
0
20
0
30
0
70
128
71
48
72
45
73
37
0
VERTEX
8
OBJECT__13
10
0
20
0
30
0
70
128
71
49
72
51
73
52
0
VERTEX
8
OBJECT__13
10
0
20
0
30
0
70
128
71
49
72
53
73
54
0
VERTEX
8
OBJECT__13
10
0
20
0
30
0
70
128
71
54
72
55
73
49
0
VERTEX
8
OBJECT__13
10
0
20
0
30
0
70
128
71
55
72
56
73
49
0
VERTEX
8
OBJECT__13
10
0
20
0
30
0
70
128
71
56
72
51
73
49
0
VERTEX
8
OBJECT__13
10
0
20
0
30
0
70
128
71
52
72
50
73
49
0
VERTEX
8
OBJECT__13
10
0
20
0
30
0
70
128
71
57
72
58
73
59
0
VERTEX
8
OBJECT__13
10
0
20
0
30
0
70
128
71
57
72
60
73
61
0
VERTEX
8
OBJECT__13
10
0
20
0
30
0
70
128
71
61
72
58
73
57
0
VERTEX
8
OBJECT__13
10
0
20
0
30
0
70
128
71
57
72
62
73
63
0
VERTEX
8
OBJECT__13
10
0
20
0
30
0
70
128
71
63
72
60
73
57
0
VERTEX
8
OBJECT__13
10
0
20
0
30
0
70
128
71
57
72
39
73
62
0
VERTEX
8
OBJECT__13
10
0
20
0
30
0
70
128
71
64
72
65
73
66
0
VERTEX
8
OBJECT__13
10
0
20
0
30
0
70
128
71
64
72
67
73
65
0
VERTEX
8
OBJECT__13
10
0
20
0
30
0
70
128
71
66
72
68
73
64
0
VERTEX
8
OBJECT__13
10
0
20
0
30
0
70
128
71
64
72
69
73
70
0
VERTEX
8
OBJECT__13
10
0
20
0
30
0
70
128
71
70
72
67
73
64
0
VERTEX
8
OBJECT__13
10
0
20
0
30
0
70
128
71
59
72
70
73
69
0
VERTEX
8
OBJECT__13
10
0
20
0
30
0
70
128
71
4
72
71
73
72
0
VERTEX
8
OBJECT__13
10
0
20
0
30
0
70
128
71
4
72
73
73
71
0
VERTEX
8
OBJECT__13
10
0
20
0
30
0
70
128
71
4
72
74
73
73
0
VERTEX
8
OBJECT__13
10
0
20
0
30
0
70
128
71
4
72
75
73
76
0
VERTEX
8
OBJECT__13
10
0
20
0
30
0
70
128
71
4
72
2
73
75
0
VERTEX
8
OBJECT__13
10
0
20
0
30
0
70
128
71
76
72
74
73
4
0
VERTEX
8
OBJECT__13
10
0
20
0
30
0
70
128
71
2
72
77
73
78
0
VERTEX
8
OBJECT__13
10
0
20
0
30
0
70
128
71
2
72
79
73
80
0
VERTEX
8
OBJECT__13
10
0
20
0
30
0
70
128
71
2
72
64
73
81
0
VERTEX
8
OBJECT__13
10
0
20
0
30
0
70
128
71
81
72
82
73
2
0
VERTEX
8
OBJECT__13
10
0
20
0
30
0
70
128
71
82
72
79
73
2
0
VERTEX
8
OBJECT__13
10
0
20
0
30
0
70
128
71
80
72
83
73
2
0
VERTEX
8
OBJECT__13
10
0
20
0
30
0
70
128
71
83
72
77
73
2
0
VERTEX
8
OBJECT__13
10
0
20
0
30
0
70
128
71
78
72
84
73
2
0
VERTEX
8
OBJECT__13
10
0
20
0
30
0
70
128
71
84
72
85
73
2
0
VERTEX
8
OBJECT__13
10
0
20
0
30
0
70
128
71
85
72
75
73
2
0
VERTEX
8
OBJECT__13
10
0
20
0
30
0
70
128
71
17
72
86
73
87
0
VERTEX
8
OBJECT__13
10
0
20
0
30
0
70
128
71
17
72
88
73
86
0
VERTEX
8
OBJECT__13
10
0
20
0
30
0
70
128
71
17
72
89
73
90
0
VERTEX
8
OBJECT__13
10
0
20
0
30
0
70
128
71
17
72
91
73
92
0
VERTEX
8
OBJECT__13
10
0
20
0
30
0
70
128
71
92
72
89
73
17
0
VERTEX
8
OBJECT__13
10
0
20
0
30
0
70
128
71
90
72
88
73
17
0
VERTEX
8
OBJECT__13
10
0
20
0
30
0
70
128
71
17
72
93
73
91
0
VERTEX
8
OBJECT__13
10
0
20
0
30
0
70
128
71
17
72
94
73
93
0
VERTEX
8
OBJECT__13
10
0
20
0
30
0
70
128
71
17
72
95
73
96
0
VERTEX
8
OBJECT__13
10
0
20
0
30
0
70
128
71
17
72
97
73
95
0
VERTEX
8
OBJECT__13
10
0
20
0
30
0
70
128
71
96
72
94
73
17
0
VERTEX
8
OBJECT__13
10
0
20
0
30
0
70
128
71
97
72
98
73
99
0
VERTEX
8
OBJECT__13
10
0
20
0
30
0
70
128
71
99
72
100
73
97
0
VERTEX
8
OBJECT__13
10
0
20
0
30
0
70
128
71
100
72
101
73
97
0
VERTEX
8
OBJECT__13
10
0
20
0
30
0
70
128
71
102
72
103
73
104
0
VERTEX
8
OBJECT__13
10
0
20
0
30
0
70
128
71
105
72
97
73
102
0
VERTEX
8
OBJECT__13
10
0
20
0
30
0
70
128
71
104
72
105
73
102
0
VERTEX
8
OBJECT__13
10
0
20
0
30
0
70
128
71
105
72
106
73
97
0
VERTEX
8
OBJECT__13
10
0
20
0
30
0
70
128
71
106
72
98
73
97
0
VERTEX
8
OBJECT__13
10
0
20
0
30
0
70
128
71
101
72
107
73
97
0
VERTEX
8
OBJECT__13
10
0
20
0
30
0
70
128
71
107
72
95
73
97
0
VERTEX
8
OBJECT__13
10
0
20
0
30
0
70
128
71
108
72
109
73
110
0
VERTEX
8
OBJECT__13
10
0
20
0
30
0
70
128
71
108
72
111
73
112
0
VERTEX
8
OBJECT__13
10
0
20
0
30
0
70
128
71
108
72
113
73
111
0
VERTEX
8
OBJECT__13
10
0
20
0
30
0
70
128
71
112
72
109
73
108
0
VERTEX
8
OBJECT__13
10
0
20
0
30
0
70
128
71
108
72
114
73
113
0
VERTEX
8
OBJECT__13
10
0
20
0
30
0
70
128
71
108
72
87
73
114
0
VERTEX
8
OBJECT__13
10
0
20
0
30
0
70
128
71
115
72
116
73
117
0
VERTEX
8
OBJECT__13
10
0
20
0
30
0
70
128
71
117
72
118
73
115
0
VERTEX
8
OBJECT__13
10
0
20
0
30
0
70
128
71
115
72
110
73
119
0
VERTEX
8
OBJECT__13
10
0
20
0
30
0
70
128
71
119
72
116
73
115
0
VERTEX
8
OBJECT__13
10
0
20
0
30
0
70
128
71
117
72
120
73
118
0
VERTEX
8
OBJECT__13
10
0
20
0
30
0
70
128
71
120
72
121
73
118
0
VERTEX
8
OBJECT__13
10
0
20
0
30
0
70
128
71
122
72
123
73
124
0
VERTEX
8
OBJECT__13
10
0
20
0
30
0
70
128
71
124
72
125
73
122
0
VERTEX
8
OBJECT__13
10
0
20
0
30
0
70
128
71
122
72
118
73
126
0
VERTEX
8
OBJECT__13
10
0
20
0
30
0
70
128
71
126
72
123
73
122
0
VERTEX
8
OBJECT__13
10
0
20
0
30
0
70
128
71
125
72
127
73
122
0
VERTEX
8
OBJECT__13
10
0
20
0
30
0
70
128
71
128
72
129
73
130
0
VERTEX
8
OBJECT__13
10
0
20
0
30
0
70
128
71
130
72
131
73
128
0
VERTEX
8
OBJECT__13
10
0
20
0
30
0
70
128
71
21
72
132
73
129
0
VERTEX
8
OBJECT__13
10
0
20
0
30
0
70
128
71
21
72
133
73
134
0
VERTEX
8
OBJECT__13
10
0
20
0
30
0
70
128
71
134
72
135
73
21
0
VERTEX
8
OBJECT__13
10
0
20
0
30
0
70
128
71
135
72
132
73
21
0
VERTEX
8
OBJECT__13
10
0
20
0
30
0
70
128
71
21
72
136
73
137
0
VERTEX
8
OBJECT__13
10
0
20
0
30
0
70
128
71
21
72
138
73
136
0
VERTEX
8
OBJECT__13
10
0
20
0
30
0
70
128
71
137
72
133
73
21
0
VERTEX
8
OBJECT__13
10
0
20
0
30
0
70
128
71
20
72
139
73
138
0
VERTEX
8
OBJECT__13
10
0
20
0
30
0
70
128
71
20
72
140
73
139
0
VERTEX
8
OBJECT__13
10
0
20
0
30
0
70
128
71
138
72
21
73
20
0
VERTEX
8
OBJECT__13
10
0
20
0
30
0
70
128
71
20
72
141
73
142
0
VERTEX
8
OBJECT__13
10
0
20
0
30
0
70
128
71
20
72
143
73
141
0
VERTEX
8
OBJECT__13
10
0
20
0
30
0
70
128
71
142
72
144
73
20
0
VERTEX
8
OBJECT__13
10
0
20
0
30
0
70
128
71
20
72
122
73
145
0
VERTEX
8
OBJECT__13
10
0
20
0
30
0
70
128
71
145
72
146
73
20
0
VERTEX
8
OBJECT__13
10
0
20
0
30
0
70
128
71
146
72
147
73
20
0
VERTEX
8
OBJECT__13
10
0
20
0
30
0
70
128
71
147
72
148
73
20
0
VERTEX
8
OBJECT__13
10
0
20
0
30
0
70
128
71
148
72
143
73
20
0
VERTEX
8
OBJECT__13
10
0
20
0
30
0
70
128
71
144
72
149
73
20
0
VERTEX
8
OBJECT__13
10
0
20
0
30
0
70
128
71
149
72
140
73
20
0
VERTEX
8
OBJECT__13
10
0
20
0
30
0
70
128
71
128
72
21
73
129
0
VERTEX
8
OBJECT__13
10
0
20
0
30
0
70
128
71
127
72
145
73
122
0
VERTEX
8
OBJECT__13
10
0
20
0
30
0
70
128
71
121
72
126
73
118
0
VERTEX
8
OBJECT__13
10
0
20
0
30
0
70
128
71
110
72
115
73
108
0
VERTEX
8
OBJECT__13
10
0
20
0
30
0
70
128
71
87
72
108
73
17
0
VERTEX
8
OBJECT__13
10
0
20
0
30
0
70
128
71
72
72
150
73
4
0
VERTEX
8
OBJECT__13
10
0
20
0
30
0
70
128
71
68
72
81
73
64
0
VERTEX
8
OBJECT__13
10
0
20
0
30
0
70
128
71
59
72
69
73
57
0
VERTEX
8
OBJECT__13
10
0
20
0
30
0
70
128
71
39
72
57
73
37
0
VERTEX
8
OBJECT__13
10
0
20
0
30
0
70
128
71
36
72
49
73
37
0
VERTEX
8
OBJECT__13
10
0
20
0
30
0
70
128
71
34
72
35
73
31
0
VERTEX
8
OBJECT__13
10
0
20
0
30
0
70
128
71
29
72
33
73
30
0
VERTEX
8
OBJECT__13
10
0
20
0
30
0
70
128
71
27
72
28
73
24
0
VERTEX
8
OBJECT__13
10
0
20
0
30
0
70
128
71
22
72
26
73
23
0
VERTEX
8
OBJECT__13
10
0
20
0
30
0
70
128
71
18
72
97
73
17
0
VERTEX
8
OBJECT__13
10
0
20
0
30
0
70
128
71
15
72
19
73
16
0
VERTEX
8
OBJECT__13
10
0
20
0
30
0
70
128
71
12
72
13
73
10
0
VERTEX
8
OBJECT__13
10
0
20
0
30
0
70
128
71
3
72
8
73
1
0
SEQEND
8
OBJECT__13
0
POLYLINE
8
OBJECT__14
66
1
70
64
71
36
72
34
62
253
0
VERTEX
8
OBJECT__14
10
67.204002
20
9.250000
30
-2.293000
70
192
0
VERTEX
8
OBJECT__14
10
67.180000
20
9.250000
30
-4.988000
70
192
0
VERTEX
8
OBJECT__14
10
69.195999
20
9.250000
30
-3.836000
70
192
0
VERTEX
8
OBJECT__14
10
67.185997
20
9.250000
30
4.859000
70
192
0
VERTEX
8
OBJECT__14
10
69.171997
20
9.250000
30
6.082000
70
192
0
VERTEX
8
OBJECT__14
10
69.166000
20
9.250000
30
6.713000
70
192
0
VERTEX
8
OBJECT__14
10
69.110001
20
9.250000
30
9.863000
70
192
0
VERTEX
8
OBJECT__14
10
67.133003
20
9.250000
30
8.783000
70
192
0
VERTEX
8
OBJECT__14
10
67.139999
20
9.250000
30
8.230000
70
192
0
VERTEX
8
OBJECT__14
10
69.168999
20
9.250000
30
-6.149000
70
192
0
VERTEX
8
OBJECT__14
10
67.207001
20
9.250000
30
0.000000
70
192
0
VERTEX
8
OBJECT__14
10
67.207001
20
9.250000
30
-1.926000
70
192
0
VERTEX
8
OBJECT__14
10
69.207001
20
9.250000
30
-1.093000
70
192
0
VERTEX
8
OBJECT__14
10
69.210999
20
9.250000
30
0.000000
70
192
0
VERTEX
8
OBJECT__14
10
69.207001
20
9.250000
30
1.093000
70
192
0
VERTEX
8
OBJECT__14
10
67.189003
20
9.250000
30
4.593000
70
192
0
VERTEX
8
OBJECT__14
10
67.204002
20
9.250000
30
2.285000
70
192
0
VERTEX
8
OBJECT__14
10
69.197998
20
9.250000
30
3.374000
70
192
0
VERTEX
8
OBJECT__14
10
67.114998
20
9.250000
30
-9.730000
70
192
0
VERTEX
8
OBJECT__14
10
67.041000
20
9.250000
30
-12.972000
70
192
0
VERTEX
8
OBJECT__14
10
69.078003
20
9.250000
30
-11.508000
70
192
0
VERTEX
8
OBJECT__14
10
69.110001
20
9.250000
30
-9.854000
70
192
0
VERTEX
8
OBJECT__14
10
69.152000
20
9.250000
30
-7.672000
70
192
0
VERTEX
8
OBJECT__14
10
67.140999
20
9.250000
30
-8.224000
70
192
0
VERTEX
8
OBJECT__14
10
69.197998
20
9.250000
30
-3.374000
70
192
0
VERTEX
8
OBJECT__14
10
67.207001
20
9.250000
30
1.799000
70
192
0
VERTEX
8
OBJECT__14
10
69.195999
20
9.250000
30
3.836000
70
192
0
VERTEX
8
OBJECT__14
10
68.974998
20
9.250000
30
-15.343000
70
192
0
VERTEX
8
OBJECT__14
10
67.163002
20
9.250000
30
-6.892000
70
192
0
VERTEX
8
OBJECT__14
10
69.088997
20
9.250000
30
11.029000
70
192
0
VERTEX
8
OBJECT__14
10
67.041000
20
9.250000
30
12.972000
70
192
0
VERTEX
8
OBJECT__14
10
68.974998
20
9.250000
30
15.343000
70
192
0
VERTEX
8
OBJECT__14
10
60.176998
20
9.250000
30
-15.432000
70
192
0
VERTEX
8
OBJECT__14
10
63.408001
20
9.250000
30
15.400000
70
192
0
VERTEX
8
OBJECT__14
10
63.408001
20
9.250000
30
13.011000
70
192
0
VERTEX
8
OBJECT__14
10
60.176998
20
9.250000
30
-13.046000
70
192
0
VERTEX
8
OBJECT__14
10
0
20
0
30
0
70
128
71
1
72
2
73
3
0
VERTEX
8
OBJECT__14
10
0
20
0
30
0
70
128
71
4
72
5
73
6
0
VERTEX
8
OBJECT__14
10
0
20
0
30
0
70
128
71
7
72
8
73
9
0
VERTEX
8
OBJECT__14
10
0
20
0
30
0
70
128
71
2
72
10
73
3
0
VERTEX
8
OBJECT__14
10
0
20
0
30
0
70
128
71
11
72
12
73
13
0
VERTEX
8
OBJECT__14
10
0
20
0
30
0
70
128
71
11
72
14
73
15
0
VERTEX
8
OBJECT__14
10
0
20
0
30
0
70
128
71
16
72
17
73
18
0
VERTEX
8
OBJECT__14
10
0
20
0
30
0
70
128
71
15
72
18
73
17
0
VERTEX
8
OBJECT__14
10
0
20
0
30
0
70
128
71
9
72
6
73
7
0
VERTEX
8
OBJECT__14
10
0
20
0
30
0
70
128
71
19
72
20
73
21
0
VERTEX
8
OBJECT__14
10
0
20
0
30
0
70
128
71
22
72
23
73
24
0
VERTEX
8
OBJECT__14
10
0
20
0
30
0
70
128
71
3
72
25
73
1
0
VERTEX
8
OBJECT__14
10
0
20
0
30
0
70
128
71
15
72
26
73
11
0
VERTEX
8
OBJECT__14
10
0
20
0
30
0
70
128
71
17
72
26
73
15
0
VERTEX
8
OBJECT__14
10
0
20
0
30
0
70
128
71
4
72
27
73
5
0
VERTEX
8
OBJECT__14
10
0
20
0
30
0
70
128
71
20
72
28
73
21
0
VERTEX
8
OBJECT__14
10
0
20
0
30
0
70
128
71
23
72
29
73
24
0
VERTEX
8
OBJECT__14
10
0
20
0
30
0
70
128
71
29
72
23
73
10
0
VERTEX
8
OBJECT__14
10
0
20
0
30
0
70
128
71
13
72
12
73
1
0
VERTEX
8
OBJECT__14
10
0
20
0
30
0
70
128
71
18
72
27
73
16
0
VERTEX
8
OBJECT__14
10
0
20
0
30
0
70
128
71
6
72
9
73
4
0
VERTEX
8
OBJECT__14
10
0
20
0
30
0
70
128
71
8
72
7
73
30
0
VERTEX
8
OBJECT__14
10
0
20
0
30
0
70
128
71
24
72
19
73
22
0
VERTEX
8
OBJECT__14
10
0
20
0
30
0
70
128
71
1
72
25
73
13
0
VERTEX
8
OBJECT__14
10
0
20
0
30
0
70
128
71
4
72
16
73
27
0
VERTEX
8
OBJECT__14
10
0
20
0
30
0
70
128
71
30
72
31
73
8
0
VERTEX
8
OBJECT__14
10
0
20
0
30
0
70
128
71
2
72
29
73
10
0
VERTEX
8
OBJECT__14
10
0
20
0
30
0
70
128
71
30
72
32
73
31
0
VERTEX
8
OBJECT__14
10
0
20
0
30
0
70
128
71
33
72
28
73
20
0
VERTEX
8
OBJECT__14
10
0
20
0
30
0
70
128
71
13
72
14
73
11
0
VERTEX
8
OBJECT__14
10
0
20
0
30
0
70
128
71
21
72
22
73
19
0
VERTEX
8
OBJECT__14
10
0
20
0
30
0
70
128
71
34
72
35
73
31
0
VERTEX
8
OBJECT__14
10
0
20
0
30
0
70
128
71
31
72
32
73
34
0
VERTEX
8
OBJECT__14
10
0
20
0
30
0
70
128
71
20
72
36
73
33
0
SEQEND
8
OBJECT__14
0
POLYLINE
8
OBJECT__15
66
1
70
64
71
31
72
29
62
253
0
VERTEX
8
OBJECT__15
10
68.974998
20
12.361000
30
12.968000
70
192
0
VERTEX
8
OBJECT__15
10
68.974998
20
9.250000
30
15.343000
70
192
0
VERTEX
8
OBJECT__15
10
69.088997
20
9.250000
30
11.029000
70
192
0
VERTEX
8
OBJECT__15
10
68.974998
20
15.004000
30
9.790000
70
192
0
VERTEX
8
OBJECT__15
10
68.974998
20
13.106000
30
12.072000
70
192
0
VERTEX
8
OBJECT__15
10
69.110001
20
9.250000
30
9.863000
70
192
0
VERTEX
8
OBJECT__15
10
69.166000
20
9.250000
30
6.713000
70
192
0
VERTEX
8
OBJECT__15
10
69.171997
20
9.250000
30
6.082000
70
192
0
VERTEX
8
OBJECT__15
10
68.974998
20
16.319000
30
7.153000
70
192
0
VERTEX
8
OBJECT__15
10
68.974998
20
16.849001
30
6.090000
70
192
0
VERTEX
8
OBJECT__15
10
69.195999
20
9.250000
30
3.836000
70
192
0
VERTEX
8
OBJECT__15
10
69.197998
20
9.250000
30
3.374000
70
192
0
VERTEX
8
OBJECT__15
10
68.974998
20
17.796000
30
2.067000
70
192
0
VERTEX
8
OBJECT__15
10
68.974998
20
17.796000
30
-2.067000
70
192
0
VERTEX
8
OBJECT__15
10
68.974998
20
17.796000
30
1.479000
70
192
0
VERTEX
8
OBJECT__15
10
69.210999
20
9.250000
30
0.000000
70
192
0
VERTEX
8
OBJECT__15
10
69.207001
20
9.250000
30
1.093000
70
192
0
VERTEX
8
OBJECT__15
10
69.207001
20
9.250000
30
-1.093000
70
192
0
VERTEX
8
OBJECT__15
10
69.197998
20
9.250000
30
-3.374000
70
192
0
VERTEX
8
OBJECT__15
10
68.974998
20
16.849001
30
-6.090000
70
192
0
VERTEX
8
OBJECT__15
10
68.974998
20
17.253000
30
-4.371000
70
192
0
VERTEX
8
OBJECT__15
10
69.195999
20
9.250000
30
-3.836000
70
192
0
VERTEX
8
OBJECT__15
10
69.168999
20
9.250000
30
-6.149000
70
192
0
VERTEX
8
OBJECT__15
10
68.974998
20
14.997000
30
-9.798000
70
192
0
VERTEX
8
OBJECT__15
10
69.152000
20
9.250000
30
-7.672000
70
192
0
VERTEX
8
OBJECT__15
10
69.110001
20
9.250000
30
-9.854000
70
192
0
VERTEX
8
OBJECT__15
10
68.974998
20
12.361000
30
-12.968000
70
192
0
VERTEX
8
OBJECT__15
10
69.078003
20
9.250000
30
-11.508000
70
192
0
VERTEX
8
OBJECT__15
10
68.974998
20
9.250000
30
-15.343000
70
192
0
VERTEX
8
OBJECT__15
10
68.974998
20
10.939000
30
-14.053000
70
192
0
VERTEX
8
OBJECT__15
10
68.974998
20
15.004000
30
-9.790000
70
192
0
VERTEX
8
OBJECT__15
10
0
20
0
30
0
70
128
71
1
72
2
73
3
0
VERTEX
8
OBJECT__15
10
0
20
0
30
0
70
128
71
4
72
5
73
6
0
VERTEX
8
OBJECT__15
10
0
20
0
30
0
70
128
71
6
72
7
73
4
0
VERTEX
8
OBJECT__15
10
0
20
0
30
0
70
128
71
7
72
8
73
4
0
VERTEX
8
OBJECT__15
10
0
20
0
30
0
70
128
71
9
72
4
73
8
0
VERTEX
8
OBJECT__15
10
0
20
0
30
0
70
128
71
10
72
9
73
11
0
VERTEX
8
OBJECT__15
10
0
20
0
30
0
70
128
71
11
72
12
73
10
0
VERTEX
8
OBJECT__15
10
0
20
0
30
0
70
128
71
13
72
10
73
12
0
VERTEX
8
OBJECT__15
10
0
20
0
30
0
70
128
71
14
72
15
73
16
0
VERTEX
8
OBJECT__15
10
0
20
0
30
0
70
128
71
15
72
17
73
16
0
VERTEX
8
OBJECT__15
10
0
20
0
30
0
70
128
71
16
72
18
73
14
0
VERTEX
8
OBJECT__15
10
0
20
0
30
0
70
128
71
14
72
18
73
19
0
VERTEX
8
OBJECT__15
10
0
20
0
30
0
70
128
71
19
72
20
73
21
0
VERTEX
8
OBJECT__15
10
0
20
0
30
0
70
128
71
20
72
22
73
23
0
VERTEX
8
OBJECT__15
10
0
20
0
30
0
70
128
71
20
72
19
73
22
0
VERTEX
8
OBJECT__15
10
0
20
0
30
0
70
128
71
24
72
25
73
26
0
VERTEX
8
OBJECT__15
10
0
20
0
30
0
70
128
71
24
72
23
73
25
0
VERTEX
8
OBJECT__15
10
0
20
0
30
0
70
128
71
26
72
27
73
24
0
VERTEX
8
OBJECT__15
10
0
20
0
30
0
70
128
71
27
72
26
73
28
0
VERTEX
8
OBJECT__15
10
0
20
0
30
0
70
128
71
28
72
29
73
30
0
VERTEX
8
OBJECT__15
10
0
20
0
30
0
70
128
71
28
72
30
73
27
0
VERTEX
8
OBJECT__15
10
0
20
0
30
0
70
128
71
24
72
31
73
23
0
VERTEX
8
OBJECT__15
10
0
20
0
30
0
70
128
71
23
72
31
73
20
0
VERTEX
8
OBJECT__15
10
0
20
0
30
0
70
128
71
19
72
21
73
14
0
VERTEX
8
OBJECT__15
10
0
20
0
30
0
70
128
71
15
72
13
73
17
0
VERTEX
8
OBJECT__15
10
0
20
0
30
0
70
128
71
12
72
17
73
13
0
VERTEX
8
OBJECT__15
10
0
20
0
30
0
70
128
71
8
72
11
73
9
0
VERTEX
8
OBJECT__15
10
0
20
0
30
0
70
128
71
5
72
1
73
6
0
VERTEX
8
OBJECT__15
10
0
20
0
30
0
70
128
71
3
72
6
73
1
0
SEQEND
8
OBJECT__15
0
POLYLINE
8
OBJECT__16
66
1
70
64
71
28
72
26
62
253
0
VERTEX
8
OBJECT__16
10
66.850998
20
11.724000
30
10.493000
70
192
0
VERTEX
8
OBJECT__16
10
66.850998
20
10.047000
30
11.978000
70
192
0
VERTEX
8
OBJECT__16
10
66.924004
20
9.000000
30
9.680000
70
192
0
VERTEX
8
OBJECT__16
10
66.949997
20
9.000000
30
8.133000
70
192
0
VERTEX
8
OBJECT__16
10
66.850998
20
13.577000
30
7.833000
70
192
0
VERTEX
8
OBJECT__16
10
66.971001
20
9.000000
30
6.857000
70
192
0
VERTEX
8
OBJECT__16
10
66.987999
20
9.000000
30
4.924000
70
192
0
VERTEX
8
OBJECT__16
10
66.850998
20
13.907000
30
7.359000
70
192
0
VERTEX
8
OBJECT__16
10
66.850998
20
15.270000
30
3.791000
70
192
0
VERTEX
8
OBJECT__16
10
66.850998
20
15.401000
30
2.721000
70
192
0
VERTEX
8
OBJECT__16
10
67.012001
20
9.000000
30
2.256000
70
192
0
VERTEX
8
OBJECT__16
10
66.850998
20
15.734000
30
0.000000
70
192
0
VERTEX
8
OBJECT__16
10
67.014999
20
9.000000
30
1.916000
70
192
0
VERTEX
8
OBJECT__16
10
67.014999
20
9.000000
30
0.000000
70
192
0
VERTEX
8
OBJECT__16
10
67.014999
20
9.000000
30
-1.790000
70
192
0
VERTEX
8
OBJECT__16
10
66.850998
20
15.401000
30
-2.721000
70
192
0
VERTEX
8
OBJECT__16
10
67.012001
20
9.000000
30
-2.249000
70
192
0
VERTEX
8
OBJECT__16
10
66.850998
20
15.270000
30
-3.791000
70
192
0
VERTEX
8
OBJECT__16
10
66.998001
20
9.000000
30
-4.569000
70
192
0
VERTEX
8
OBJECT__16
10
66.995003
20
9.000000
30
-4.785000
70
192
0
VERTEX
8
OBJECT__16
10
66.850998
20
13.577000
30
-7.833000
70
192
0
VERTEX
8
OBJECT__16
10
66.949997
20
9.000000
30
-8.145000
70
192
0
VERTEX
8
OBJECT__16
10
66.850998
20
11.724000
30
-10.493000
70
192
0
VERTEX
8
OBJECT__16
10
66.942001
20
9.000000
30
-8.738000
70
192
0
VERTEX
8
OBJECT__16
10
66.850998
20
9.000000
30
-12.906000
70
192
0
VERTEX
8
OBJECT__16
10
66.850998
20
10.047000
30
-11.978000
70
192
0
VERTEX
8
OBJECT__16
10
66.850998
20
13.907000
30
-7.359000
70
192
0
VERTEX
8
OBJECT__16
10
66.850998
20
9.000000
30
12.906000
70
192
0
VERTEX
8
OBJECT__16
10
0
20
0
30
0
70
128
71
1
72
2
73
3
0
VERTEX
8
OBJECT__16
10
0
20
0
30
0
70
128
71
3
72
4
73
1
0
VERTEX
8
OBJECT__16
10
0
20
0
30
0
70
128
71
5
72
1
73
4
0
VERTEX
8
OBJECT__16
10
0
20
0
30
0
70
128
71
4
72
6
73
5
0
VERTEX
8
OBJECT__16
10
0
20
0
30
0
70
128
71
7
72
8
73
5
0
VERTEX
8
OBJECT__16
10
0
20
0
30
0
70
128
71
9
72
8
73
7
0
VERTEX
8
OBJECT__16
10
0
20
0
30
0
70
128
71
10
72
9
73
11
0
VERTEX
8
OBJECT__16
10
0
20
0
30
0
70
128
71
12
72
10
73
13
0
VERTEX
8
OBJECT__16
10
0
20
0
30
0
70
128
71
13
72
14
73
12
0
VERTEX
8
OBJECT__16
10
0
20
0
30
0
70
128
71
12
72
14
73
15
0
VERTEX
8
OBJECT__16
10
0
20
0
30
0
70
128
71
16
72
15
73
17
0
VERTEX
8
OBJECT__16
10
0
20
0
30
0
70
128
71
17
72
18
73
16
0
VERTEX
8
OBJECT__16
10
0
20
0
30
0
70
128
71
18
72
19
73
20
0
VERTEX
8
OBJECT__16
10
0
20
0
30
0
70
128
71
18
72
17
73
19
0
VERTEX
8
OBJECT__16
10
0
20
0
30
0
70
128
71
21
72
20
73
22
0
VERTEX
8
OBJECT__16
10
0
20
0
30
0
70
128
71
22
72
23
73
21
0
VERTEX
8
OBJECT__16
10
0
20
0
30
0
70
128
71
23
72
22
73
24
0
VERTEX
8
OBJECT__16
10
0
20
0
30
0
70
128
71
24
72
25
73
26
0
VERTEX
8
OBJECT__16
10
0
20
0
30
0
70
128
71
24
72
26
73
23
0
VERTEX
8
OBJECT__16
10
0
20
0
30
0
70
128
71
21
72
27
73
20
0
VERTEX
8
OBJECT__16
10
0
20
0
30
0
70
128
71
20
72
27
73
18
0
VERTEX
8
OBJECT__16
10
0
20
0
30
0
70
128
71
15
72
16
73
12
0
VERTEX
8
OBJECT__16
10
0
20
0
30
0
70
128
71
11
72
13
73
10
0
VERTEX
8
OBJECT__16
10
0
20
0
30
0
70
128
71
7
72
11
73
9
0
VERTEX
8
OBJECT__16
10
0
20
0
30
0
70
128
71
6
72
7
73
5
0
VERTEX
8
OBJECT__16
10
0
20
0
30
0
70
128
71
2
72
28
73
3
0
SEQEND
8
OBJECT__16
0
POLYLINE
8
OBJECT__17
66
1
70
64
71
19
72
17
62
253
0
VERTEX
8
OBJECT__17
10
61.039001
20
9.000000
30
1.626000
70
192
0
VERTEX
8
OBJECT__17
10
66.971001
20
9.000000
30
6.857000
70
192
0
VERTEX
8
OBJECT__17
10
66.949997
20
9.000000
30
8.133000
70
192
0
VERTEX
8
OBJECT__17
10
66.987999
20
9.000000
30
4.924000
70
192
0
VERTEX
8
OBJECT__17
10
62.047001
20
9.000000
30
12.957000
70
192
0
VERTEX
8
OBJECT__17
10
66.924004
20
9.000000
30
9.680000
70
192
0
VERTEX
8
OBJECT__17
10
67.012001
20
9.000000
30
2.256000
70
192
0
VERTEX
8
OBJECT__17
10
60.863998
20
9.000000
30
-0.220000
70
192
0
VERTEX
8
OBJECT__17
10
67.012001
20
9.000000
30
-2.249000
70
192
0
VERTEX
8
OBJECT__17
10
67.014999
20
9.000000
30
-1.790000
70
192
0
VERTEX
8
OBJECT__17
10
66.995003
20
9.000000
30
-4.785000
70
192
0
VERTEX
8
OBJECT__17
10
66.998001
20
9.000000
30
-4.569000
70
192
0
VERTEX
8
OBJECT__17
10
59.527000
20
9.000000
30
-12.984000
70
192
0
VERTEX
8
OBJECT__17
10
66.949997
20
9.000000
30
-8.145000
70
192
0
VERTEX
8
OBJECT__17
10
66.850998
20
9.000000
30
-12.906000
70
192
0
VERTEX
8
OBJECT__17
10
66.942001
20
9.000000
30
-8.738000
70
192
0
VERTEX
8
OBJECT__17
10
67.014999
20
9.000000
30
0.000000
70
192
0
VERTEX
8
OBJECT__17
10
67.014999
20
9.000000
30
1.916000
70
192
0
VERTEX
8
OBJECT__17
10
66.850998
20
9.000000
30
12.906000
70
192
0
VERTEX
8
OBJECT__17
10
0
20
0
30
0
70
128
71
1
72
2
73
3
0
VERTEX
8
OBJECT__17
10
0
20
0
30
0
70
128
71
1
72
4
73
2
0
VERTEX
8
OBJECT__17
10
0
20
0
30
0
70
128
71
5
72
3
73
6
0
VERTEX
8
OBJECT__17
10
0
20
0
30
0
70
128
71
1
72
7
73
4
0
VERTEX
8
OBJECT__17
10
0
20
0
30
0
70
128
71
8
72
9
73
10
0
VERTEX
8
OBJECT__17
10
0
20
0
30
0
70
128
71
8
72
11
73
12
0
VERTEX
8
OBJECT__17
10
0
20
0
30
0
70
128
71
13
72
14
73
11
0
VERTEX
8
OBJECT__17
10
0
20
0
30
0
70
128
71
13
72
15
73
16
0
VERTEX
8
OBJECT__17
10
0
20
0
30
0
70
128
71
3
72
5
73
1
0
VERTEX
8
OBJECT__17
10
0
20
0
30
0
70
128
71
12
72
9
73
8
0
VERTEX
8
OBJECT__17
10
0
20
0
30
0
70
128
71
16
72
14
73
13
0
VERTEX
8
OBJECT__17
10
0
20
0
30
0
70
128
71
17
72
18
73
1
0
VERTEX
8
OBJECT__17
10
0
20
0
30
0
70
128
71
1
72
18
73
7
0
VERTEX
8
OBJECT__17
10
0
20
0
30
0
70
128
71
11
72
8
73
13
0
VERTEX
8
OBJECT__17
10
0
20
0
30
0
70
128
71
6
72
19
73
5
0
VERTEX
8
OBJECT__17
10
0
20
0
30
0
70
128
71
1
72
8
73
17
0
VERTEX
8
OBJECT__17
10
0
20
0
30
0
70
128
71
10
72
17
73
8
0
SEQEND
8
OBJECT__17
0
POLYLINE
8
OBJECT__19
66
1
70
64
71
103
72
101
62
253
0
VERTEX
8
OBJECT__19
10
58.125000
20
10.891000
30
11.458000
70
192
0
VERTEX
8
OBJECT__19
10
60.863998
20
9.000000
30
-0.220000
70
192
0
VERTEX
8
OBJECT__19
10
61.039001
20
9.000000
30
1.626000
70
192
0
VERTEX
8
OBJECT__19
10
57.782001
20
9.704000
30
-12.484000
70
192
0
VERTEX
8
OBJECT__19
10
59.063000
20
9.228000
30
-12.827000
70
192
0
VERTEX
8
OBJECT__19
10
58.723999
20
10.737000
30
11.598000
70
192
0
VERTEX
8
OBJECT__19
10
61.512001
20
9.378000
30
12.691000
70
192
0
VERTEX
8
OBJECT__19
10
60.138000
20
10.149000
30
12.095000
70
192
0
VERTEX
8
OBJECT__19
10
62.047001
20
9.000000
30
12.957000
70
192
0
VERTEX
8
OBJECT__19
10
59.969002
20
10.244000
30
12.022000
70
192
0
VERTEX
8
OBJECT__19
10
55.603001
20
11.326000
30
11.063000
70
192
0
VERTEX
8
OBJECT__19
10
54.050999
20
11.306000
30
11.102000
70
192
0
VERTEX
8
OBJECT__19
10
54.964001
20
10.125000
30
-12.179000
70
192
0
VERTEX
8
OBJECT__19
10
57.136002
20
11.145000
30
11.226000
70
192
0
VERTEX
8
OBJECT__19
10
56.426998
20
10.017000
30
-12.251000
70
192
0
VERTEX
8
OBJECT__19
10
57.664001
20
9.748000
30
-12.452000
70
192
0
VERTEX
8
OBJECT__19
10
53.665001
20
10.029000
30
-12.272000
70
192
0
VERTEX
8
OBJECT__19
10
53.505001
20
11.244000
30
11.172000
70
192
0
VERTEX
8
OBJECT__19
10
53.601002
20
10.025000
30
-12.277000
70
192
0
VERTEX
8
OBJECT__19
10
53.193001
20
11.209000
30
11.211000
70
192
0
VERTEX
8
OBJECT__19
10
51.584000
20
10.850000
30
11.578000
70
192
0
VERTEX
8
OBJECT__19
10
52.124001
20
9.692000
30
-12.557000
70
192
0
VERTEX
8
OBJECT__19
10
50.088001
20
10.292000
30
12.094000
70
192
0
VERTEX
8
OBJECT__19
10
49.910000
20
10.208000
30
12.166000
70
192
0
VERTEX
8
OBJECT__19
10
49.778000
20
10.146000
30
12.220000
70
192
0
VERTEX
8
OBJECT__19
10
49.108002
20
9.754000
30
12.530000
70
192
0
VERTEX
8
OBJECT__19
10
49.792000
20
8.618000
30
-13.341000
70
192
0
VERTEX
8
OBJECT__19
10
51.217999
20
9.363000
30
-12.814000
70
192
0
VERTEX
8
OBJECT__19
10
49.757000
20
8.600000
30
-13.354000
70
192
0
VERTEX
8
OBJECT__19
10
46.888000
20
8.140000
30
13.668000
70
192
0
VERTEX
8
OBJECT__19
10
45.856998
20
7.017000
30
14.287000
70
192
0
VERTEX
8
OBJECT__19
10
48.264000
20
9.259000
30
12.921000
70
192
0
VERTEX
8
OBJECT__19
10
45.609001
20
6.653000
30
14.446000
70
192
0
VERTEX
8
OBJECT__19
10
46.865002
20
5.762000
30
-14.811000
70
192
0
VERTEX
8
OBJECT__19
10
47.326000
20
6.433000
30
-14.545000
70
192
0
VERTEX
8
OBJECT__19
10
48.368000
20
7.539000
30
-13.994000
70
192
0
VERTEX
8
OBJECT__19
10
45.265999
20
2.028000
30
-15.787000
70
192
0
VERTEX
8
OBJECT__19
10
44.271000
20
4.362000
30
15.322000
70
192
0
VERTEX
8
OBJECT__19
10
43.737999
20
2.788000
30
15.690000
70
192
0
VERTEX
8
OBJECT__19
10
44.808998
20
5.446000
30
14.961000
70
192
0
VERTEX
8
OBJECT__19
10
46.643002
20
5.437000
30
-14.940000
70
192
0
VERTEX
8
OBJECT__19
10
44.872002
20
5.574000
30
14.919000
70
192
0
VERTEX
8
OBJECT__19
10
45.284000
20
2.160000
30
-15.775000
70
192
0
VERTEX
8
OBJECT__19
10
45.728001
20
3.657000
30
-15.493000
70
192
0
VERTEX
8
OBJECT__19
10
46.415001
20
5.105000
30
-15.071000
70
192
0
VERTEX
8
OBJECT__19
10
43.425999
20
-0.969000
30
15.909000
70
192
0
VERTEX
8
OBJECT__19
10
43.650002
20
-2.366000
30
15.752000
70
192
0
VERTEX
8
OBJECT__19
10
45.280998
20
-2.025000
30
-15.778000
70
192
0
VERTEX
8
OBJECT__19
10
45.120998
20
-1.174000
30
-15.880000
70
192
0
VERTEX
8
OBJECT__19
10
43.405998
20
0.000000
30
15.923000
70
192
0
VERTEX
8
OBJECT__19
10
43.391998
20
-0.403000
30
15.934000
70
192
0
VERTEX
8
OBJECT__19
10
45.071999
20
0.613000
30
-15.912000
70
192
0
VERTEX
8
OBJECT__19
10
43.660000
20
2.363000
30
15.744000
70
192
0
VERTEX
8
OBJECT__19
10
43.450001
20
1.215000
30
15.892000
70
192
0
VERTEX
8
OBJECT__19
10
45.077000
20
0.000000
30
-15.909000
70
192
0
VERTEX
8
OBJECT__19
10
45.062000
20
0.396000
30
-15.919000
70
192
0
VERTEX
8
OBJECT__19
10
45.911999
20
-4.108000
30
-15.378000
70
192
0
VERTEX
8
OBJECT__19
10
45.386002
20
-2.588000
30
-15.710000
70
192
0
VERTEX
8
OBJECT__19
10
46.479000
20
-5.215000
30
-15.033000
70
192
0
VERTEX
8
OBJECT__19
10
46.637001
20
-5.438000
30
-14.942000
70
192
0
VERTEX
8
OBJECT__19
10
45.012001
20
-5.811000
30
14.827000
70
192
0
VERTEX
8
OBJECT__19
10
45.611000
20
-6.651000
30
14.445000
70
192
0
VERTEX
8
OBJECT__19
10
44.825001
20
-5.442000
30
14.952000
70
192
0
VERTEX
8
OBJECT__19
10
43.680000
20
-2.553000
30
15.730000
70
192
0
VERTEX
8
OBJECT__19
10
44.158001
20
-4.086000
30
15.399000
70
192
0
VERTEX
8
OBJECT__19
10
44.255001
20
-4.325000
30
15.333000
70
192
0
VERTEX
8
OBJECT__19
10
46.866001
20
-5.761000
30
-14.811000
70
192
0
VERTEX
8
OBJECT__19
10
48.417000
20
-7.584000
30
-13.969000
70
192
0
VERTEX
8
OBJECT__19
10
47.445999
20
-6.578000
30
-14.479000
70
192
0
VERTEX
8
OBJECT__19
10
49.705002
20
-8.567000
30
-13.375000
70
192
0
VERTEX
8
OBJECT__19
10
48.700001
20
-9.547000
30
12.705000
70
192
0
VERTEX
8
OBJECT__19
10
49.104000
20
-9.757000
30
12.531000
70
192
0
VERTEX
8
OBJECT__19
10
45.981998
20
-7.170000
30
14.210000
70
192
0
VERTEX
8
OBJECT__19
10
47.262001
20
-8.480000
30
13.456000
70
192
0
VERTEX
8
OBJECT__19
10
49.793999
20
-8.614000
30
-13.342000
70
192
0
VERTEX
8
OBJECT__19
10
53.306000
20
-11.225000
30
11.193000
70
192
0
VERTEX
8
OBJECT__19
10
51.396999
20
-9.436000
30
-12.759000
70
192
0
VERTEX
8
OBJECT__19
10
51.117001
20
-9.320000
30
-12.847000
70
192
0
VERTEX
8
OBJECT__19
10
52.808998
20
-9.876000
30
-12.405000
70
192
0
VERTEX
8
OBJECT__19
10
53.505001
20
-11.240000
30
11.176000
70
192
0
VERTEX
8
OBJECT__19
10
53.667000
20
-10.018000
30
-12.281000
70
192
0
VERTEX
8
OBJECT__19
10
49.966000
20
-10.203000
30
12.160000
70
192
0
VERTEX
8
OBJECT__19
10
50.391998
20
-10.425000
30
11.976000
70
192
0
VERTEX
8
OBJECT__19
10
52.012001
20
-10.968000
30
11.461000
70
192
0
VERTEX
8
OBJECT__19
10
55.480999
20
-10.112000
30
-12.184000
70
192
0
VERTEX
8
OBJECT__19
10
54.015999
20
-10.076000
30
-12.230000
70
192
0
VERTEX
8
OBJECT__19
10
54.867001
20
-11.342000
30
11.056000
70
192
0
VERTEX
8
OBJECT__19
10
56.221001
20
-11.277000
30
11.105000
70
192
0
VERTEX
8
OBJECT__19
10
56.772999
20
-9.959000
30
-12.295000
70
192
0
VERTEX
8
OBJECT__19
10
57.740002
20
-11.017000
30
11.344000
70
192
0
VERTEX
8
OBJECT__19
10
57.924999
20
-10.972000
30
11.386000
70
192
0
VERTEX
8
OBJECT__19
10
58.127998
20
-10.905000
30
11.445000
70
192
0
VERTEX
8
OBJECT__19
10
57.778000
20
-9.688000
30
-12.496000
70
192
0
VERTEX
8
OBJECT__19
10
61.039001
20
-9.000000
30
1.626000
70
192
0
VERTEX
8
OBJECT__19
10
59.473999
20
-10.460000
30
11.840000
70
192
0
VERTEX
8
OBJECT__19
10
60.105999
20
-10.147000
30
12.093000
70
192
0
VERTEX
8
OBJECT__19
10
60.946999
20
-9.732000
30
12.429000
70
192
0
VERTEX
8
OBJECT__19
10
58.244999
20
-9.562000
30
-12.590000
70
192
0
VERTEX
8
OBJECT__19
10
59.737000
20
-9.000000
30
-11.141000
70
192
0
VERTEX
8
OBJECT__19
10
59.527000
20
-9.000000
30
-12.984000
70
192
0
VERTEX
8
OBJECT__19
10
59.125999
20
-9.199000
30
-12.847000
70
192
0
VERTEX
8
OBJECT__19
10
62.047001
20
-9.000000
30
12.957000
70
192
0
VERTEX
8
OBJECT__19
10
59.527000
20
9.000000
30
-12.984000
70
192
0
VERTEX
8
OBJECT__19
10
0
20
0
30
0
70
128
71
1
72
2
73
3
0
VERTEX
8
OBJECT__19
10
0
20
0
30
0
70
128
71
4
72
5
73
2
0
VERTEX
8
OBJECT__19
10
0
20
0
30
0
70
128
71
2
72
1
73
4
0
VERTEX
8
OBJECT__19
10
0
20
0
30
0
70
128
71
3
72
6
73
1
0
VERTEX
8
OBJECT__19
10
0
20
0
30
0
70
128
71
3
72
7
73
8
0
VERTEX
8
OBJECT__19
10
0
20
0
30
0
70
128
71
3
72
9
73
7
0
VERTEX
8
OBJECT__19
10
0
20
0
30
0
70
128
71
8
72
10
73
3
0
VERTEX
8
OBJECT__19
10
0
20
0
30
0
70
128
71
10
72
6
73
3
0
VERTEX
8
OBJECT__19
10
0
20
0
30
0
70
128
71
11
72
12
73
13
0
VERTEX
8
OBJECT__19
10
0
20
0
30
0
70
128
71
14
72
11
73
15
0
VERTEX
8
OBJECT__19
10
0
20
0
30
0
70
128
71
15
72
16
73
14
0
VERTEX
8
OBJECT__19
10
0
20
0
30
0
70
128
71
4
72
1
73
14
0
VERTEX
8
OBJECT__19
10
0
20
0
30
0
70
128
71
16
72
4
73
14
0
VERTEX
8
OBJECT__19
10
0
20
0
30
0
70
128
71
17
72
13
73
12
0
VERTEX
8
OBJECT__19
10
0
20
0
30
0
70
128
71
12
72
18
73
17
0
VERTEX
8
OBJECT__19
10
0
20
0
30
0
70
128
71
19
72
17
73
18
0
VERTEX
8
OBJECT__19
10
0
20
0
30
0
70
128
71
18
72
20
73
19
0
VERTEX
8
OBJECT__19
10
0
20
0
30
0
70
128
71
20
72
21
73
19
0
VERTEX
8
OBJECT__19
10
0
20
0
30
0
70
128
71
22
72
19
73
23
0
VERTEX
8
OBJECT__19
10
0
20
0
30
0
70
128
71
23
72
24
73
22
0
VERTEX
8
OBJECT__19
10
0
20
0
30
0
70
128
71
24
72
25
73
22
0
VERTEX
8
OBJECT__19
10
0
20
0
30
0
70
128
71
26
72
27
73
28
0
VERTEX
8
OBJECT__19
10
0
20
0
30
0
70
128
71
28
72
22
73
26
0
VERTEX
8
OBJECT__19
10
0
20
0
30
0
70
128
71
25
72
26
73
22
0
VERTEX
8
OBJECT__19
10
0
20
0
30
0
70
128
71
29
72
30
73
31
0
VERTEX
8
OBJECT__19
10
0
20
0
30
0
70
128
71
29
72
32
73
30
0
VERTEX
8
OBJECT__19
10
0
20
0
30
0
70
128
71
29
72
27
73
26
0
VERTEX
8
OBJECT__19
10
0
20
0
30
0
70
128
71
26
72
32
73
29
0
VERTEX
8
OBJECT__19
10
0
20
0
30
0
70
128
71
33
72
34
73
35
0
VERTEX
8
OBJECT__19
10
0
20
0
30
0
70
128
71
35
72
36
73
33
0
VERTEX
8
OBJECT__19
10
0
20
0
30
0
70
128
71
36
72
29
73
33
0
VERTEX
8
OBJECT__19
10
0
20
0
30
0
70
128
71
37
72
38
73
39
0
VERTEX
8
OBJECT__19
10
0
20
0
30
0
70
128
71
37
72
40
73
38
0
VERTEX
8
OBJECT__19
10
0
20
0
30
0
70
128
71
41
72
34
73
33
0
VERTEX
8
OBJECT__19
10
0
20
0
30
0
70
128
71
33
72
42
73
41
0
VERTEX
8
OBJECT__19
10
0
20
0
30
0
70
128
71
40
72
37
73
43
0
VERTEX
8
OBJECT__19
10
0
20
0
30
0
70
128
71
43
72
44
73
40
0
VERTEX
8
OBJECT__19
10
0
20
0
30
0
70
128
71
44
72
45
73
40
0
VERTEX
8
OBJECT__19
10
0
20
0
30
0
70
128
71
45
72
41
73
40
0
VERTEX
8
OBJECT__19
10
0
20
0
30
0
70
128
71
42
72
40
73
41
0
VERTEX
8
OBJECT__19
10
0
20
0
30
0
70
128
71
46
72
47
73
48
0
VERTEX
8
OBJECT__19
10
0
20
0
30
0
70
128
71
49
72
50
73
51
0
VERTEX
8
OBJECT__19
10
0
20
0
30
0
70
128
71
51
72
46
73
49
0
VERTEX
8
OBJECT__19
10
0
20
0
30
0
70
128
71
52
72
37
73
53
0
VERTEX
8
OBJECT__19
10
0
20
0
30
0
70
128
71
54
72
55
73
56
0
VERTEX
8
OBJECT__19
10
0
20
0
30
0
70
128
71
56
72
52
73
54
0
VERTEX
8
OBJECT__19
10
0
20
0
30
0
70
128
71
50
72
49
73
55
0
VERTEX
8
OBJECT__19
10
0
20
0
30
0
70
128
71
55
72
54
73
50
0
VERTEX
8
OBJECT__19
10
0
20
0
30
0
70
128
71
53
72
54
73
52
0
VERTEX
8
OBJECT__19
10
0
20
0
30
0
70
128
71
47
72
57
73
58
0
VERTEX
8
OBJECT__19
10
0
20
0
30
0
70
128
71
47
72
59
73
57
0
VERTEX
8
OBJECT__19
10
0
20
0
30
0
70
128
71
47
72
60
73
59
0
VERTEX
8
OBJECT__19
10
0
20
0
30
0
70
128
71
60
72
61
73
62
0
VERTEX
8
OBJECT__19
10
0
20
0
30
0
70
128
71
60
72
63
73
61
0
VERTEX
8
OBJECT__19
10
0
20
0
30
0
70
128
71
60
72
47
73
64
0
VERTEX
8
OBJECT__19
10
0
20
0
30
0
70
128
71
64
72
65
73
60
0
VERTEX
8
OBJECT__19
10
0
20
0
30
0
70
128
71
65
72
66
73
60
0
VERTEX
8
OBJECT__19
10
0
20
0
30
0
70
128
71
66
72
63
73
60
0
VERTEX
8
OBJECT__19
10
0
20
0
30
0
70
128
71
62
72
67
73
60
0
VERTEX
8
OBJECT__19
10
0
20
0
30
0
70
128
71
62
72
68
73
69
0
VERTEX
8
OBJECT__19
10
0
20
0
30
0
70
128
71
62
72
70
73
68
0
VERTEX
8
OBJECT__19
10
0
20
0
30
0
70
128
71
70
72
71
73
72
0
VERTEX
8
OBJECT__19
10
0
20
0
30
0
70
128
71
70
72
62
73
73
0
VERTEX
8
OBJECT__19
10
0
20
0
30
0
70
128
71
73
72
74
73
70
0
VERTEX
8
OBJECT__19
10
0
20
0
30
0
70
128
71
74
72
71
73
70
0
VERTEX
8
OBJECT__19
10
0
20
0
30
0
70
128
71
72
72
75
73
70
0
VERTEX
8
OBJECT__19
10
0
20
0
30
0
70
128
71
76
72
77
73
78
0
VERTEX
8
OBJECT__19
10
0
20
0
30
0
70
128
71
76
72
79
73
77
0
VERTEX
8
OBJECT__19
10
0
20
0
30
0
70
128
71
76
72
80
73
81
0
VERTEX
8
OBJECT__19
10
0
20
0
30
0
70
128
71
81
72
79
73
76
0
VERTEX
8
OBJECT__19
10
0
20
0
30
0
70
128
71
75
72
72
73
82
0
VERTEX
8
OBJECT__19
10
0
20
0
30
0
70
128
71
82
72
83
73
75
0
VERTEX
8
OBJECT__19
10
0
20
0
30
0
70
128
71
83
72
84
73
75
0
VERTEX
8
OBJECT__19
10
0
20
0
30
0
70
128
71
84
72
76
73
75
0
VERTEX
8
OBJECT__19
10
0
20
0
30
0
70
128
71
85
72
86
73
87
0
VERTEX
8
OBJECT__19
10
0
20
0
30
0
70
128
71
86
72
80
73
87
0
VERTEX
8
OBJECT__19
10
0
20
0
30
0
70
128
71
87
72
88
73
85
0
VERTEX
8
OBJECT__19
10
0
20
0
30
0
70
128
71
89
72
90
73
91
0
VERTEX
8
OBJECT__19
10
0
20
0
30
0
70
128
71
89
72
85
73
88
0
VERTEX
8
OBJECT__19
10
0
20
0
30
0
70
128
71
88
72
90
73
89
0
VERTEX
8
OBJECT__19
10
0
20
0
30
0
70
128
71
92
72
93
73
89
0
VERTEX
8
OBJECT__19
10
0
20
0
30
0
70
128
71
91
72
92
73
89
0
VERTEX
8
OBJECT__19
10
0
20
0
30
0
70
128
71
94
72
95
73
96
0
VERTEX
8
OBJECT__19
10
0
20
0
30
0
70
128
71
96
72
97
73
94
0
VERTEX
8
OBJECT__19
10
0
20
0
30
0
70
128
71
93
72
92
73
94
0
VERTEX
8
OBJECT__19
10
0
20
0
30
0
70
128
71
92
72
95
73
94
0
VERTEX
8
OBJECT__19
10
0
20
0
30
0
70
128
71
94
72
98
73
93
0
VERTEX
8
OBJECT__19
10
0
20
0
30
0
70
128
71
98
72
94
73
99
0
VERTEX
8
OBJECT__19
10
0
20
0
30
0
70
128
71
99
72
100
73
101
0
VERTEX
8
OBJECT__19
10
0
20
0
30
0
70
128
71
99
72
101
73
98
0
VERTEX
8
OBJECT__19
10
0
20
0
30
0
70
128
71
97
72
102
73
94
0
VERTEX
8
OBJECT__19
10
0
20
0
30
0
70
128
71
86
72
81
73
80
0
VERTEX
8
OBJECT__19
10
0
20
0
30
0
70
128
71
78
72
75
73
76
0
VERTEX
8
OBJECT__19
10
0
20
0
30
0
70
128
71
69
72
67
73
62
0
VERTEX
8
OBJECT__19
10
0
20
0
30
0
70
128
71
58
72
48
73
47
0
VERTEX
8
OBJECT__19
10
0
20
0
30
0
70
128
71
48
72
49
73
46
0
VERTEX
8
OBJECT__19
10
0
20
0
30
0
70
128
71
39
72
53
73
37
0
VERTEX
8
OBJECT__19
10
0
20
0
30
0
70
128
71
31
72
33
73
29
0
VERTEX
8
OBJECT__19
10
0
20
0
30
0
70
128
71
21
72
23
73
19
0
VERTEX
8
OBJECT__19
10
0
20
0
30
0
70
128
71
13
72
15
73
11
0
VERTEX
8
OBJECT__19
10
0
20
0
30
0
70
128
71
5
72
103
73
2
0
SEQEND
8
OBJECT__19
0
POLYLINE
8
OBJECT__20
66
1
70
64
71
147
72
147
62
253
0
VERTEX
8
OBJECT__20
10
2.000000
20
-14.116000
30
-8.150000
70
192
0
VERTEX
8
OBJECT__20
10
2.000000
20
-10.477000
30
-12.487000
70
192
0
VERTEX
8
OBJECT__20
10
66.850998
20
-11.724000
30
-10.493000
70
192
0
VERTEX
8
OBJECT__20
10
66.850998
20
-10.047000
30
-11.978000
70
192
0
VERTEX
8
OBJECT__20
10
66.850998
20
-13.907000
30
-7.359000
70
192
0
VERTEX
8
OBJECT__20
10
66.850998
20
-15.270000
30
-3.791000
70
192
0
VERTEX
8
OBJECT__20
10
2.000000
20
-16.052000
30
-2.830000
70
192
0
VERTEX
8
OBJECT__20
10
66.850998
20
-13.577000
30
-7.833000
70
192
0
VERTEX
8
OBJECT__20
10
66.850998
20
-15.401000
30
-2.721000
70
192
0
VERTEX
8
OBJECT__20
10
66.850998
20
-15.734000
30
0.000000
70
192
0
VERTEX
8
OBJECT__20
10
2.000000
20
-16.052000
30
2.830000
70
192
0
VERTEX
8
OBJECT__20
10
2.000000
20
-14.116000
30
8.150000
70
192
0
VERTEX
8
OBJECT__20
10
66.850998
20
-15.270000
30
3.791000
70
192
0
VERTEX
8
OBJECT__20
10
66.850998
20
-15.401000
30
2.721000
70
192
0
VERTEX
8
OBJECT__20
10
66.850998
20
-13.907000
30
7.359000
70
192
0
VERTEX
8
OBJECT__20
10
2.000000
20
14.116000
30
8.150000
70
192
0
VERTEX
8
OBJECT__20
10
66.850998
20
13.907000
30
7.359000
70
192
0
VERTEX
8
OBJECT__20
10
66.850998
20
15.270000
30
3.791000
70
192
0
VERTEX
8
OBJECT__20
10
2.000000
20
16.052000
30
2.830000
70
192
0
VERTEX
8
OBJECT__20
10
66.850998
20
13.577000
30
7.833000
70
192
0
VERTEX
8
OBJECT__20
10
66.850998
20
15.401000
30
2.721000
70
192
0
VERTEX
8
OBJECT__20
10
66.850998
20
15.734000
30
0.000000
70
192
0
VERTEX
8
OBJECT__20
10
2.000000
20
16.052000
30
-2.830000
70
192
0
VERTEX
8
OBJECT__20
10
2.000000
20
14.116000
30
-8.150000
70
192
0
VERTEX
8
OBJECT__20
10
66.850998
20
15.270000
30
-3.791000
70
192
0
VERTEX
8
OBJECT__20
10
66.850998
20
15.401000
30
-2.721000
70
192
0
VERTEX
8
OBJECT__20
10
66.850998
20
13.907000
30
-7.359000
70
192
0
VERTEX
8
OBJECT__20
10
66.850998
20
13.577000
30
-7.833000
70
192
0
VERTEX
8
OBJECT__20
10
66.850998
20
11.724000
30
-10.493000
70
192
0
VERTEX
8
OBJECT__20
10
2.000000
20
10.477000
30
-12.487000
70
192
0
VERTEX
8
OBJECT__20
10
2.000000
20
5.575000
30
-15.317000
70
192
0
VERTEX
8
OBJECT__20
10
47.326000
20
6.433000
30
-14.545000
70
192
0
VERTEX
8
OBJECT__20
10
46.865002
20
5.762000
30
-14.811000
70
192
0
VERTEX
8
OBJECT__20
10
48.368000
20
7.539000
30
-13.994000
70
192
0
VERTEX
8
OBJECT__20
10
49.757000
20
8.600000
30
-13.354000
70
192
0
VERTEX
8
OBJECT__20
10
51.217999
20
9.363000
30
-12.814000
70
192
0
VERTEX
8
OBJECT__20
10
49.792000
20
8.618000
30
-13.341000
70
192
0
VERTEX
8
OBJECT__20
10
52.124001
20
9.692000
30
-12.557000
70
192
0
VERTEX
8
OBJECT__20
10
53.601002
20
10.025000
30
-12.277000
70
192
0
VERTEX
8
OBJECT__20
10
66.850998
20
10.047000
30
-11.978000
70
192
0
VERTEX
8
OBJECT__20
10
54.964001
20
10.125000
30
-12.179000
70
192
0
VERTEX
8
OBJECT__20
10
53.665001
20
10.029000
30
-12.272000
70
192
0
VERTEX
8
OBJECT__20
10
46.643002
20
5.437000
30
-14.940000
70
192
0
VERTEX
8
OBJECT__20
10
59.063000
20
9.228000
30
-12.827000
70
192
0
VERTEX
8
OBJECT__20
10
57.782001
20
9.704000
30
-12.484000
70
192
0
VERTEX
8
OBJECT__20
10
66.850998
20
9.000000
30
-12.906000
70
192
0
VERTEX
8
OBJECT__20
10
59.527000
20
9.000000
30
-12.984000
70
192
0
VERTEX
8
OBJECT__20
10
57.664001
20
9.748000
30
-12.452000
70
192
0
VERTEX
8
OBJECT__20
10
56.426998
20
10.017000
30
-12.251000
70
192
0
VERTEX
8
OBJECT__20
10
2.000000
20
0.000000
30
-16.299999
70
192
0
VERTEX
8
OBJECT__20
10
45.071999
20
0.613000
30
-15.912000
70
192
0
VERTEX
8
OBJECT__20
10
45.284000
20
2.160000
30
-15.775000
70
192
0
VERTEX
8
OBJECT__20
10
45.265999
20
2.028000
30
-15.787000
70
192
0
VERTEX
8
OBJECT__20
10
45.062000
20
0.396000
30
-15.919000
70
192
0
VERTEX
8
OBJECT__20
10
46.415001
20
5.105000
30
-15.071000
70
192
0
VERTEX
8
OBJECT__20
10
45.728001
20
3.657000
30
-15.493000
70
192
0
VERTEX
8
OBJECT__20
10
2.000000
20
-5.575000
30
-15.317000
70
192
0
VERTEX
8
OBJECT__20
10
45.386002
20
-2.588000
30
-15.710000
70
192
0
VERTEX
8
OBJECT__20
10
45.911999
20
-4.108000
30
-15.378000
70
192
0
VERTEX
8
OBJECT__20
10
46.479000
20
-5.215000
30
-15.033000
70
192
0
VERTEX
8
OBJECT__20
10
45.120998
20
-1.174000
30
-15.880000
70
192
0
VERTEX
8
OBJECT__20
10
45.280998
20
-2.025000
30
-15.778000
70
192
0
VERTEX
8
OBJECT__20
10
45.077000
20
0.000000
30
-15.909000
70
192
0
VERTEX
8
OBJECT__20
10
59.125999
20
-9.199000
30
-12.847000
70
192
0
VERTEX
8
OBJECT__20
10
59.527000
20
-9.000000
30
-12.984000
70
192
0
VERTEX
8
OBJECT__20
10
58.244999
20
-9.562000
30
-12.590000
70
192
0
VERTEX
8
OBJECT__20
10
56.772999
20
-9.959000
30
-12.295000
70
192
0
VERTEX
8
OBJECT__20
10
57.778000
20
-9.688000
30
-12.496000
70
192
0
VERTEX
8
OBJECT__20
10
55.480999
20
-10.112000
30
-12.184000
70
192
0
VERTEX
8
OBJECT__20
10
54.015999
20
-10.076000
30
-12.230000
70
192
0
VERTEX
8
OBJECT__20
10
52.808998
20
-9.876000
30
-12.405000
70
192
0
VERTEX
8
OBJECT__20
10
53.667000
20
-10.018000
30
-12.281000
70
192
0
VERTEX
8
OBJECT__20
10
49.705002
20
-8.567000
30
-13.375000
70
192
0
VERTEX
8
OBJECT__20
10
49.793999
20
-8.614000
30
-13.342000
70
192
0
VERTEX
8
OBJECT__20
10
51.117001
20
-9.320000
30
-12.847000
70
192
0
VERTEX
8
OBJECT__20
10
51.396999
20
-9.436000
30
-12.759000
70
192
0
VERTEX
8
OBJECT__20
10
46.637001
20
-5.438000
30
-14.942000
70
192
0
VERTEX
8
OBJECT__20
10
46.866001
20
-5.761000
30
-14.811000
70
192
0
VERTEX
8
OBJECT__20
10
47.445999
20
-6.578000
30
-14.479000
70
192
0
VERTEX
8
OBJECT__20
10
48.417000
20
-7.584000
30
-13.969000
70
192
0
VERTEX
8
OBJECT__20
10
66.850998
20
-10.047000
30
11.978000
70
192
0
VERTEX
8
OBJECT__20
10
66.850998
20
-9.000000
30
12.906000
70
192
0
VERTEX
8
OBJECT__20
10
62.047001
20
-9.000000
30
12.957000
70
192
0
VERTEX
8
OBJECT__20
10
60.946999
20
-9.732000
30
12.429000
70
192
0
VERTEX
8
OBJECT__20
10
50.391998
20
-10.425000
30
11.976000
70
192
0
VERTEX
8
OBJECT__20
10
49.966000
20
-10.203000
30
12.160000
70
192
0
VERTEX
8
OBJECT__20
10
53.306000
20
-11.225000
30
11.193000
70
192
0
VERTEX
8
OBJECT__20
10
52.012001
20
-10.968000
30
11.461000
70
192
0
VERTEX
8
OBJECT__20
10
66.850998
20
-13.577000
30
7.833000
70
192
0
VERTEX
8
OBJECT__20
10
54.867001
20
-11.342000
30
11.056000
70
192
0
VERTEX
8
OBJECT__20
10
53.505001
20
-11.240000
30
11.176000
70
192
0
VERTEX
8
OBJECT__20
10
59.473999
20
-10.460000
30
11.840000
70
192
0
VERTEX
8
OBJECT__20
10
58.127998
20
-10.905000
30
11.445000
70
192
0
VERTEX
8
OBJECT__20
10
57.924999
20
-10.972000
30
11.386000
70
192
0
VERTEX
8
OBJECT__20
10
57.740002
20
-11.017000
30
11.344000
70
192
0
VERTEX
8
OBJECT__20
10
66.850998
20
-11.724000
30
10.493000
70
192
0
VERTEX
8
OBJECT__20
10
60.105999
20
-10.147000
30
12.093000
70
192
0
VERTEX
8
OBJECT__20
10
56.221001
20
-11.277000
30
11.105000
70
192
0
VERTEX
8
OBJECT__20
10
2.000000
20
-10.477000
30
12.487000
70
192
0
VERTEX
8
OBJECT__20
10
45.012001
20
-5.811000
30
14.827000
70
192
0
VERTEX
8
OBJECT__20
10
44.825001
20
-5.442000
30
14.952000
70
192
0
VERTEX
8
OBJECT__20
10
45.981998
20
-7.170000
30
14.210000
70
192
0
VERTEX
8
OBJECT__20
10
45.611000
20
-6.651000
30
14.445000
70
192
0
VERTEX
8
OBJECT__20
10
47.262001
20
-8.480000
30
13.456000
70
192
0
VERTEX
8
OBJECT__20
10
48.700001
20
-9.547000
30
12.705000
70
192
0
VERTEX
8
OBJECT__20
10
49.104000
20
-9.757000
30
12.531000
70
192
0
VERTEX
8
OBJECT__20
10
2.000000
20
-5.575000
30
15.317000
70
192
0
VERTEX
8
OBJECT__20
10
43.425999
20
-0.969000
30
15.909000
70
192
0
VERTEX
8
OBJECT__20
10
43.391998
20
-0.403000
30
15.934000
70
192
0
VERTEX
8
OBJECT__20
10
43.680000
20
-2.553000
30
15.730000
70
192
0
VERTEX
8
OBJECT__20
10
43.650002
20
-2.366000
30
15.752000
70
192
0
VERTEX
8
OBJECT__20
10
2.000000
20
0.000000
30
16.299999
70
192
0
VERTEX
8
OBJECT__20
10
44.255001
20
-4.325000
30
15.333000
70
192
0
VERTEX
8
OBJECT__20
10
44.158001
20
-4.086000
30
15.399000
70
192
0
VERTEX
8
OBJECT__20
10
2.000000
20
5.575000
30
15.317000
70
192
0
VERTEX
8
OBJECT__20
10
43.737999
20
2.788000
30
15.690000
70
192
0
VERTEX
8
OBJECT__20
10
44.271000
20
4.362000
30
15.322000
70
192
0
VERTEX
8
OBJECT__20
10
43.450001
20
1.215000
30
15.892000
70
192
0
VERTEX
8
OBJECT__20
10
43.660000
20
2.363000
30
15.744000
70
192
0
VERTEX
8
OBJECT__20
10
43.405998
20
0.000000
30
15.923000
70
192
0
VERTEX
8
OBJECT__20
10
2.000000
20
10.477000
30
12.487000
70
192
0
VERTEX
8
OBJECT__20
10
48.264000
20
9.259000
30
12.921000
70
192
0
VERTEX
8
OBJECT__20
10
49.108002
20
9.754000
30
12.530000
70
192
0
VERTEX
8
OBJECT__20
10
49.778000
20
10.146000
30
12.220000
70
192
0
VERTEX
8
OBJECT__20
10
44.872002
20
5.574000
30
14.919000
70
192
0
VERTEX
8
OBJECT__20
10
45.609001
20
6.653000
30
14.446000
70
192
0
VERTEX
8
OBJECT__20
10
44.808998
20
5.446000
30
14.961000
70
192
0
VERTEX
8
OBJECT__20
10
45.856998
20
7.017000
30
14.287000
70
192
0
VERTEX
8
OBJECT__20
10
46.888000
20
8.140000
30
13.668000
70
192
0
VERTEX
8
OBJECT__20
10
66.850998
20
11.724000
30
10.493000
70
192
0
VERTEX
8
OBJECT__20
10
59.969002
20
10.244000
30
12.022000
70
192
0
VERTEX
8
OBJECT__20
10
60.138000
20
10.149000
30
12.095000
70
192
0
VERTEX
8
OBJECT__20
10
66.850998
20
10.047000
30
11.978000
70
192
0
VERTEX
8
OBJECT__20
10
58.723999
20
10.737000
30
11.598000
70
192
0
VERTEX
8
OBJECT__20
10
57.136002
20
11.145000
30
11.226000
70
192
0
VERTEX
8
OBJECT__20
10
58.125000
20
10.891000
30
11.458000
70
192
0
VERTEX
8
OBJECT__20
10
55.603001
20
11.326000
30
11.063000
70
192
0
VERTEX
8
OBJECT__20
10
53.193001
20
11.209000
30
11.211000
70
192
0
VERTEX
8
OBJECT__20
10
53.505001
20
11.244000
30
11.172000
70
192
0
VERTEX
8
OBJECT__20
10
54.050999
20
11.306000
30
11.102000
70
192
0
VERTEX
8
OBJECT__20
10
51.584000
20
10.850000
30
11.578000
70
192
0
VERTEX
8
OBJECT__20
10
49.910000
20
10.208000
30
12.166000
70
192
0
VERTEX
8
OBJECT__20
10
50.088001
20
10.292000
30
12.094000
70
192
0
VERTEX
8
OBJECT__20
10
61.512001
20
9.378000
30
12.691000
70
192
0
VERTEX
8
OBJECT__20
10
62.047001
20
9.000000
30
12.957000
70
192
0
VERTEX
8
OBJECT__20
10
66.850998
20
9.000000
30
12.906000
70
192
0
VERTEX
8
OBJECT__20
10
66.850998
20
-9.000000
30
-12.906000
70
192
0
VERTEX
8
OBJECT__20
10
0
20
0
30
0
70
128
71
1
72
2
73
3
0
VERTEX
8
OBJECT__20
10
0
20
0
30
0
70
128
71
2
72
4
73
3
0
VERTEX
8
OBJECT__20
10
0
20
0
30
0
70
128
71
1
72
5
73
6
0
VERTEX
8
OBJECT__20
10
0
20
0
30
0
70
128
71
6
72
7
73
1
0
VERTEX
8
OBJECT__20
10
0
20
0
30
0
70
128
71
1
72
8
73
5
0
VERTEX
8
OBJECT__20
10
0
20
0
30
0
70
128
71
7
72
9
73
10
0
VERTEX
8
OBJECT__20
10
0
20
0
30
0
70
128
71
10
72
11
73
7
0
VERTEX
8
OBJECT__20
10
0
20
0
30
0
70
128
71
12
72
11
73
13
0
VERTEX
8
OBJECT__20
10
0
20
0
30
0
70
128
71
11
72
14
73
13
0
VERTEX
8
OBJECT__20
10
0
20
0
30
0
70
128
71
13
72
15
73
12
0
VERTEX
8
OBJECT__20
10
0
20
0
30
0
70
128
71
16
72
17
73
18
0
VERTEX
8
OBJECT__20
10
0
20
0
30
0
70
128
71
18
72
19
73
16
0
VERTEX
8
OBJECT__20
10
0
20
0
30
0
70
128
71
16
72
20
73
17
0
VERTEX
8
OBJECT__20
10
0
20
0
30
0
70
128
71
19
72
21
73
22
0
VERTEX
8
OBJECT__20
10
0
20
0
30
0
70
128
71
22
72
23
73
19
0
VERTEX
8
OBJECT__20
10
0
20
0
30
0
70
128
71
24
72
23
73
25
0
VERTEX
8
OBJECT__20
10
0
20
0
30
0
70
128
71
23
72
26
73
25
0
VERTEX
8
OBJECT__20
10
0
20
0
30
0
70
128
71
25
72
27
73
24
0
VERTEX
8
OBJECT__20
10
0
20
0
30
0
70
128
71
24
72
28
73
29
0
VERTEX
8
OBJECT__20
10
0
20
0
30
0
70
128
71
29
72
30
73
24
0
VERTEX
8
OBJECT__20
10
0
20
0
30
0
70
128
71
31
72
32
73
33
0
VERTEX
8
OBJECT__20
10
0
20
0
30
0
70
128
71
31
72
34
73
32
0
VERTEX
8
OBJECT__20
10
0
20
0
30
0
70
128
71
31
72
35
73
34
0
VERTEX
8
OBJECT__20
10
0
20
0
30
0
70
128
71
31
72
36
73
37
0
VERTEX
8
OBJECT__20
10
0
20
0
30
0
70
128
71
31
72
38
73
36
0
VERTEX
8
OBJECT__20
10
0
20
0
30
0
70
128
71
31
72
39
73
38
0
VERTEX
8
OBJECT__20
10
0
20
0
30
0
70
128
71
37
72
35
73
31
0
VERTEX
8
OBJECT__20
10
0
20
0
30
0
70
128
71
30
72
40
73
41
0
VERTEX
8
OBJECT__20
10
0
20
0
30
0
70
128
71
30
72
42
73
39
0
VERTEX
8
OBJECT__20
10
0
20
0
30
0
70
128
71
39
72
31
73
30
0
VERTEX
8
OBJECT__20
10
0
20
0
30
0
70
128
71
41
72
42
73
30
0
VERTEX
8
OBJECT__20
10
0
20
0
30
0
70
128
71
33
72
43
73
31
0
VERTEX
8
OBJECT__20
10
0
20
0
30
0
70
128
71
40
72
44
73
45
0
VERTEX
8
OBJECT__20
10
0
20
0
30
0
70
128
71
40
72
46
73
47
0
VERTEX
8
OBJECT__20
10
0
20
0
30
0
70
128
71
47
72
44
73
40
0
VERTEX
8
OBJECT__20
10
0
20
0
30
0
70
128
71
45
72
48
73
40
0
VERTEX
8
OBJECT__20
10
0
20
0
30
0
70
128
71
48
72
49
73
40
0
VERTEX
8
OBJECT__20
10
0
20
0
30
0
70
128
71
49
72
41
73
40
0
VERTEX
8
OBJECT__20
10
0
20
0
30
0
70
128
71
50
72
31
73
51
0
VERTEX
8
OBJECT__20
10
0
20
0
30
0
70
128
71
31
72
52
73
53
0
VERTEX
8
OBJECT__20
10
0
20
0
30
0
70
128
71
53
72
51
73
31
0
VERTEX
8
OBJECT__20
10
0
20
0
30
0
70
128
71
51
72
54
73
50
0
VERTEX
8
OBJECT__20
10
0
20
0
30
0
70
128
71
31
72
43
73
55
0
VERTEX
8
OBJECT__20
10
0
20
0
30
0
70
128
71
55
72
56
73
31
0
VERTEX
8
OBJECT__20
10
0
20
0
30
0
70
128
71
56
72
52
73
31
0
VERTEX
8
OBJECT__20
10
0
20
0
30
0
70
128
71
57
72
58
73
59
0
VERTEX
8
OBJECT__20
10
0
20
0
30
0
70
128
71
59
72
60
73
57
0
VERTEX
8
OBJECT__20
10
0
20
0
30
0
70
128
71
57
72
61
73
62
0
VERTEX
8
OBJECT__20
10
0
20
0
30
0
70
128
71
62
72
58
73
57
0
VERTEX
8
OBJECT__20
10
0
20
0
30
0
70
128
71
50
72
63
73
61
0
VERTEX
8
OBJECT__20
10
0
20
0
30
0
70
128
71
61
72
57
73
50
0
VERTEX
8
OBJECT__20
10
0
20
0
30
0
70
128
71
4
72
64
73
65
0
VERTEX
8
OBJECT__20
10
0
20
0
30
0
70
128
71
4
72
66
73
64
0
VERTEX
8
OBJECT__20
10
0
20
0
30
0
70
128
71
4
72
67
73
68
0
VERTEX
8
OBJECT__20
10
0
20
0
30
0
70
128
71
68
72
66
73
4
0
VERTEX
8
OBJECT__20
10
0
20
0
30
0
70
128
71
4
72
69
73
67
0
VERTEX
8
OBJECT__20
10
0
20
0
30
0
70
128
71
2
72
70
73
69
0
VERTEX
8
OBJECT__20
10
0
20
0
30
0
70
128
71
2
72
71
73
72
0
VERTEX
8
OBJECT__20
10
0
20
0
30
0
70
128
71
2
72
73
73
74
0
VERTEX
8
OBJECT__20
10
0
20
0
30
0
70
128
71
74
72
75
73
2
0
VERTEX
8
OBJECT__20
10
0
20
0
30
0
70
128
71
75
72
76
73
2
0
VERTEX
8
OBJECT__20
10
0
20
0
30
0
70
128
71
2
72
57
73
77
0
VERTEX
8
OBJECT__20
10
0
20
0
30
0
70
128
71
77
72
78
73
2
0
VERTEX
8
OBJECT__20
10
0
20
0
30
0
70
128
71
78
72
79
73
2
0
VERTEX
8
OBJECT__20
10
0
20
0
30
0
70
128
71
79
72
80
73
2
0
VERTEX
8
OBJECT__20
10
0
20
0
30
0
70
128
71
80
72
73
73
2
0
VERTEX
8
OBJECT__20
10
0
20
0
30
0
70
128
71
76
72
71
73
2
0
VERTEX
8
OBJECT__20
10
0
20
0
30
0
70
128
71
72
72
70
73
2
0
VERTEX
8
OBJECT__20
10
0
20
0
30
0
70
128
71
69
72
4
73
2
0
VERTEX
8
OBJECT__20
10
0
20
0
30
0
70
128
71
81
72
82
73
83
0
VERTEX
8
OBJECT__20
10
0
20
0
30
0
70
128
71
83
72
84
73
81
0
VERTEX
8
OBJECT__20
10
0
20
0
30
0
70
128
71
12
72
85
73
86
0
VERTEX
8
OBJECT__20
10
0
20
0
30
0
70
128
71
12
72
87
73
88
0
VERTEX
8
OBJECT__20
10
0
20
0
30
0
70
128
71
88
72
85
73
12
0
VERTEX
8
OBJECT__20
10
0
20
0
30
0
70
128
71
89
72
90
73
91
0
VERTEX
8
OBJECT__20
10
0
20
0
30
0
70
128
71
91
72
12
73
89
0
VERTEX
8
OBJECT__20
10
0
20
0
30
0
70
128
71
91
72
87
73
12
0
VERTEX
8
OBJECT__20
10
0
20
0
30
0
70
128
71
89
72
92
73
93
0
VERTEX
8
OBJECT__20
10
0
20
0
30
0
70
128
71
93
72
94
73
89
0
VERTEX
8
OBJECT__20
10
0
20
0
30
0
70
128
71
94
72
95
73
89
0
VERTEX
8
OBJECT__20
10
0
20
0
30
0
70
128
71
96
72
81
73
97
0
VERTEX
8
OBJECT__20
10
0
20
0
30
0
70
128
71
92
72
89
73
96
0
VERTEX
8
OBJECT__20
10
0
20
0
30
0
70
128
71
97
72
92
73
96
0
VERTEX
8
OBJECT__20
10
0
20
0
30
0
70
128
71
95
72
98
73
89
0
VERTEX
8
OBJECT__20
10
0
20
0
30
0
70
128
71
98
72
90
73
89
0
VERTEX
8
OBJECT__20
10
0
20
0
30
0
70
128
71
99
72
100
73
101
0
VERTEX
8
OBJECT__20
10
0
20
0
30
0
70
128
71
99
72
102
73
103
0
VERTEX
8
OBJECT__20
10
0
20
0
30
0
70
128
71
103
72
100
73
99
0
VERTEX
8
OBJECT__20
10
0
20
0
30
0
70
128
71
99
72
104
73
102
0
VERTEX
8
OBJECT__20
10
0
20
0
30
0
70
128
71
99
72
105
73
104
0
VERTEX
8
OBJECT__20
10
0
20
0
30
0
70
128
71
99
72
86
73
106
0
VERTEX
8
OBJECT__20
10
0
20
0
30
0
70
128
71
106
72
105
73
99
0
VERTEX
8
OBJECT__20
10
0
20
0
30
0
70
128
71
107
72
108
73
109
0
VERTEX
8
OBJECT__20
10
0
20
0
30
0
70
128
71
107
72
110
73
111
0
VERTEX
8
OBJECT__20
10
0
20
0
30
0
70
128
71
111
72
108
73
107
0
VERTEX
8
OBJECT__20
10
0
20
0
30
0
70
128
71
109
72
112
73
107
0
VERTEX
8
OBJECT__20
10
0
20
0
30
0
70
128
71
107
72
113
73
114
0
VERTEX
8
OBJECT__20
10
0
20
0
30
0
70
128
71
107
72
101
73
113
0
VERTEX
8
OBJECT__20
10
0
20
0
30
0
70
128
71
114
72
110
73
107
0
VERTEX
8
OBJECT__20
10
0
20
0
30
0
70
128
71
115
72
116
73
117
0
VERTEX
8
OBJECT__20
10
0
20
0
30
0
70
128
71
115
72
118
73
119
0
VERTEX
8
OBJECT__20
10
0
20
0
30
0
70
128
71
119
72
116
73
115
0
VERTEX
8
OBJECT__20
10
0
20
0
30
0
70
128
71
112
72
120
73
118
0
VERTEX
8
OBJECT__20
10
0
20
0
30
0
70
128
71
118
72
115
73
112
0
VERTEX
8
OBJECT__20
10
0
20
0
30
0
70
128
71
121
72
122
73
123
0
VERTEX
8
OBJECT__20
10
0
20
0
30
0
70
128
71
123
72
124
73
121
0
VERTEX
8
OBJECT__20
10
0
20
0
30
0
70
128
71
121
72
125
73
126
0
VERTEX
8
OBJECT__20
10
0
20
0
30
0
70
128
71
121
72
115
73
127
0
VERTEX
8
OBJECT__20
10
0
20
0
30
0
70
128
71
127
72
125
73
121
0
VERTEX
8
OBJECT__20
10
0
20
0
30
0
70
128
71
126
72
128
73
121
0
VERTEX
8
OBJECT__20
10
0
20
0
30
0
70
128
71
128
72
129
73
121
0
VERTEX
8
OBJECT__20
10
0
20
0
30
0
70
128
71
129
72
122
73
121
0
VERTEX
8
OBJECT__20
10
0
20
0
30
0
70
128
71
130
72
131
73
132
0
VERTEX
8
OBJECT__20
10
0
20
0
30
0
70
128
71
132
72
133
73
130
0
VERTEX
8
OBJECT__20
10
0
20
0
30
0
70
128
71
20
72
134
73
131
0
VERTEX
8
OBJECT__20
10
0
20
0
30
0
70
128
71
20
72
135
73
136
0
VERTEX
8
OBJECT__20
10
0
20
0
30
0
70
128
71
136
72
134
73
20
0
VERTEX
8
OBJECT__20
10
0
20
0
30
0
70
128
71
20
72
137
73
135
0
VERTEX
8
OBJECT__20
10
0
20
0
30
0
70
128
71
16
72
138
73
139
0
VERTEX
8
OBJECT__20
10
0
20
0
30
0
70
128
71
139
72
20
73
16
0
VERTEX
8
OBJECT__20
10
0
20
0
30
0
70
128
71
139
72
140
73
20
0
VERTEX
8
OBJECT__20
10
0
20
0
30
0
70
128
71
16
72
141
73
138
0
VERTEX
8
OBJECT__20
10
0
20
0
30
0
70
128
71
16
72
121
73
142
0
VERTEX
8
OBJECT__20
10
0
20
0
30
0
70
128
71
142
72
143
73
16
0
VERTEX
8
OBJECT__20
10
0
20
0
30
0
70
128
71
143
72
141
73
16
0
VERTEX
8
OBJECT__20
10
0
20
0
30
0
70
128
71
140
72
137
73
20
0
VERTEX
8
OBJECT__20
10
0
20
0
30
0
70
128
71
133
72
144
73
145
0
VERTEX
8
OBJECT__20
10
0
20
0
30
0
70
128
71
133
72
132
73
144
0
VERTEX
8
OBJECT__20
10
0
20
0
30
0
70
128
71
145
72
146
73
133
0
VERTEX
8
OBJECT__20
10
0
20
0
30
0
70
128
71
130
72
20
73
131
0
VERTEX
8
OBJECT__20
10
0
20
0
30
0
70
128
71
124
72
142
73
121
0
VERTEX
8
OBJECT__20
10
0
20
0
30
0
70
128
71
117
72
127
73
115
0
VERTEX
8
OBJECT__20
10
0
20
0
30
0
70
128
71
109
72
120
73
112
0
VERTEX
8
OBJECT__20
10
0
20
0
30
0
70
128
71
101
72
107
73
99
0
VERTEX
8
OBJECT__20
10
0
20
0
30
0
70
128
71
86
72
99
73
12
0
VERTEX
8
OBJECT__20
10
0
20
0
30
0
70
128
71
84
72
97
73
81
0
VERTEX
8
OBJECT__20
10
0
20
0
30
0
70
128
71
65
72
147
73
4
0
VERTEX
8
OBJECT__20
10
0
20
0
30
0
70
128
71
60
72
77
73
57
0
VERTEX
8
OBJECT__20
10
0
20
0
30
0
70
128
71
54
72
63
73
50
0
VERTEX
8
OBJECT__20
10
0
20
0
30
0
70
128
71
29
72
40
73
30
0
VERTEX
8
OBJECT__20
10
0
20
0
30
0
70
128
71
27
72
28
73
24
0
VERTEX
8
OBJECT__20
10
0
20
0
30
0
70
128
71
22
72
26
73
23
0
VERTEX
8
OBJECT__20
10
0
20
0
30
0
70
128
71
18
72
21
73
19
0
VERTEX
8
OBJECT__20
10
0
20
0
30
0
70
128
71
15
72
89
73
12
0
VERTEX
8
OBJECT__20
10
0
20
0
30
0
70
128
71
10
72
14
73
11
0
VERTEX
8
OBJECT__20
10
0
20
0
30
0
70
128
71
6
72
9
73
7
0
VERTEX
8
OBJECT__20
10
0
20
0
30
0
70
128
71
3
72
8
73
1
0
SEQEND
8
OBJECT__20
0
POLYLINE
8
OBJECT__21
66
1
70
64
71
19
72
17
62
253
0
VERTEX
8
OBJECT__21
10
59.737000
20
-9.000000
30
-11.141000
70
192
0
VERTEX
8
OBJECT__21
10
66.987999
20
-9.000000
30
-4.924000
70
192
0
VERTEX
8
OBJECT__21
10
66.971001
20
-9.000000
30
-6.857000
70
192
0
VERTEX
8
OBJECT__21
10
61.039001
20
-9.000000
30
1.626000
70
192
0
VERTEX
8
OBJECT__21
10
67.012001
20
-9.000000
30
-2.256000
70
192
0
VERTEX
8
OBJECT__21
10
66.949997
20
-9.000000
30
-8.133000
70
192
0
VERTEX
8
OBJECT__21
10
66.924004
20
-9.000000
30
-9.680000
70
192
0
VERTEX
8
OBJECT__21
10
67.014999
20
-9.000000
30
0.000000
70
192
0
VERTEX
8
OBJECT__21
10
67.014999
20
-9.000000
30
-1.916000
70
192
0
VERTEX
8
OBJECT__21
10
66.995003
20
-9.000000
30
4.785000
70
192
0
VERTEX
8
OBJECT__21
10
66.998001
20
-9.000000
30
4.569000
70
192
0
VERTEX
8
OBJECT__21
10
62.047001
20
-9.000000
30
12.957000
70
192
0
VERTEX
8
OBJECT__21
10
66.949997
20
-9.000000
30
8.145000
70
192
0
VERTEX
8
OBJECT__21
10
66.850998
20
-9.000000
30
12.906000
70
192
0
VERTEX
8
OBJECT__21
10
66.942001
20
-9.000000
30
8.738000
70
192
0
VERTEX
8
OBJECT__21
10
67.014999
20
-9.000000
30
1.790000
70
192
0
VERTEX
8
OBJECT__21
10
67.012001
20
-9.000000
30
2.249000
70
192
0
VERTEX
8
OBJECT__21
10
66.850998
20
-9.000000
30
-12.906000
70
192
0
VERTEX
8
OBJECT__21
10
59.527000
20
-9.000000
30
-12.984000
70
192
0
VERTEX
8
OBJECT__21
10
0
20
0
30
0
70
128
71
1
72
2
73
3
0
VERTEX
8
OBJECT__21
10
0
20
0
30
0
70
128
71
4
72
5
73
2
0
VERTEX
8
OBJECT__21
10
0
20
0
30
0
70
128
71
1
72
6
73
7
0
VERTEX
8
OBJECT__21
10
0
20
0
30
0
70
128
71
2
72
1
73
4
0
VERTEX
8
OBJECT__21
10
0
20
0
30
0
70
128
71
4
72
8
73
9
0
VERTEX
8
OBJECT__21
10
0
20
0
30
0
70
128
71
4
72
10
73
11
0
VERTEX
8
OBJECT__21
10
0
20
0
30
0
70
128
71
4
72
12
73
13
0
VERTEX
8
OBJECT__21
10
0
20
0
30
0
70
128
71
12
72
14
73
15
0
VERTEX
8
OBJECT__21
10
0
20
0
30
0
70
128
71
3
72
6
73
1
0
VERTEX
8
OBJECT__21
10
0
20
0
30
0
70
128
71
4
72
16
73
8
0
VERTEX
8
OBJECT__21
10
0
20
0
30
0
70
128
71
11
72
17
73
4
0
VERTEX
8
OBJECT__21
10
0
20
0
30
0
70
128
71
15
72
13
73
12
0
VERTEX
8
OBJECT__21
10
0
20
0
30
0
70
128
71
9
72
5
73
4
0
VERTEX
8
OBJECT__21
10
0
20
0
30
0
70
128
71
13
72
10
73
4
0
VERTEX
8
OBJECT__21
10
0
20
0
30
0
70
128
71
18
72
19
73
1
0
VERTEX
8
OBJECT__21
10
0
20
0
30
0
70
128
71
7
72
18
73
1
0
VERTEX
8
OBJECT__21
10
0
20
0
30
0
70
128
71
17
72
16
73
4
0
SEQEND
8
OBJECT__21
0
POLYLINE
8
OBJECT__22
66
1
70
64
71
28
72
26
62
253
0
VERTEX
8
OBJECT__22
10
66.850998
20
-11.724000
30
-10.493000
70
192
0
VERTEX
8
OBJECT__22
10
66.850998
20
-10.047000
30
-11.978000
70
192
0
VERTEX
8
OBJECT__22
10
66.924004
20
-9.000000
30
-9.680000
70
192
0
VERTEX
8
OBJECT__22
10
66.949997
20
-9.000000
30
-8.133000
70
192
0
VERTEX
8
OBJECT__22
10
66.850998
20
-13.577000
30
-7.833000
70
192
0
VERTEX
8
OBJECT__22
10
66.971001
20
-9.000000
30
-6.857000
70
192
0
VERTEX
8
OBJECT__22
10
66.987999
20
-9.000000
30
-4.924000
70
192
0
VERTEX
8
OBJECT__22
10
66.850998
20
-13.907000
30
-7.359000
70
192
0
VERTEX
8
OBJECT__22
10
66.850998
20
-15.270000
30
-3.791000
70
192
0
VERTEX
8
OBJECT__22
10
66.850998
20
-15.401000
30
-2.721000
70
192
0
VERTEX
8
OBJECT__22
10
67.012001
20
-9.000000
30
-2.256000
70
192
0
VERTEX
8
OBJECT__22
10
66.850998
20
-15.734000
30
0.000000
70
192
0
VERTEX
8
OBJECT__22
10
67.014999
20
-9.000000
30
-1.916000
70
192
0
VERTEX
8
OBJECT__22
10
67.014999
20
-9.000000
30
0.000000
70
192
0
VERTEX
8
OBJECT__22
10
67.014999
20
-9.000000
30
1.790000
70
192
0
VERTEX
8
OBJECT__22
10
66.850998
20
-15.401000
30
2.721000
70
192
0
VERTEX
8
OBJECT__22
10
67.012001
20
-9.000000
30
2.249000
70
192
0
VERTEX
8
OBJECT__22
10
66.850998
20
-15.270000
30
3.791000
70
192
0
VERTEX
8
OBJECT__22
10
66.998001
20
-9.000000
30
4.569000
70
192
0
VERTEX
8
OBJECT__22
10
66.995003
20
-9.000000
30
4.785000
70
192
0
VERTEX
8
OBJECT__22
10
66.850998
20
-13.577000
30
7.833000
70
192
0
VERTEX
8
OBJECT__22
10
66.949997
20
-9.000000
30
8.145000
70
192
0
VERTEX
8
OBJECT__22
10
66.850998
20
-11.724000
30
10.493000
70
192
0
VERTEX
8
OBJECT__22
10
66.942001
20
-9.000000
30
8.738000
70
192
0
VERTEX
8
OBJECT__22
10
66.850998
20
-9.000000
30
12.906000
70
192
0
VERTEX
8
OBJECT__22
10
66.850998
20
-10.047000
30
11.978000
70
192
0
VERTEX
8
OBJECT__22
10
66.850998
20
-13.907000
30
7.359000
70
192
0
VERTEX
8
OBJECT__22
10
66.850998
20
-9.000000
30
-12.906000
70
192
0
VERTEX
8
OBJECT__22
10
0
20
0
30
0
70
128
71
1
72
2
73
3
0
VERTEX
8
OBJECT__22
10
0
20
0
30
0
70
128
71
3
72
4
73
1
0
VERTEX
8
OBJECT__22
10
0
20
0
30
0
70
128
71
5
72
1
73
4
0
VERTEX
8
OBJECT__22
10
0
20
0
30
0
70
128
71
4
72
6
73
5
0
VERTEX
8
OBJECT__22
10
0
20
0
30
0
70
128
71
7
72
8
73
5
0
VERTEX
8
OBJECT__22
10
0
20
0
30
0
70
128
71
9
72
8
73
7
0
VERTEX
8
OBJECT__22
10
0
20
0
30
0
70
128
71
10
72
9
73
11
0
VERTEX
8
OBJECT__22
10
0
20
0
30
0
70
128
71
12
72
10
73
13
0
VERTEX
8
OBJECT__22
10
0
20
0
30
0
70
128
71
13
72
14
73
12
0
VERTEX
8
OBJECT__22
10
0
20
0
30
0
70
128
71
12
72
14
73
15
0
VERTEX
8
OBJECT__22
10
0
20
0
30
0
70
128
71
16
72
15
73
17
0
VERTEX
8
OBJECT__22
10
0
20
0
30
0
70
128
71
17
72
18
73
16
0
VERTEX
8
OBJECT__22
10
0
20
0
30
0
70
128
71
18
72
19
73
20
0
VERTEX
8
OBJECT__22
10
0
20
0
30
0
70
128
71
18
72
17
73
19
0
VERTEX
8
OBJECT__22
10
0
20
0
30
0
70
128
71
21
72
20
73
22
0
VERTEX
8
OBJECT__22
10
0
20
0
30
0
70
128
71
22
72
23
73
21
0
VERTEX
8
OBJECT__22
10
0
20
0
30
0
70
128
71
23
72
22
73
24
0
VERTEX
8
OBJECT__22
10
0
20
0
30
0
70
128
71
24
72
25
73
26
0
VERTEX
8
OBJECT__22
10
0
20
0
30
0
70
128
71
24
72
26
73
23
0
VERTEX
8
OBJECT__22
10
0
20
0
30
0
70
128
71
21
72
27
73
20
0
VERTEX
8
OBJECT__22
10
0
20
0
30
0
70
128
71
20
72
27
73
18
0
VERTEX
8
OBJECT__22
10
0
20
0
30
0
70
128
71
15
72
16
73
12
0
VERTEX
8
OBJECT__22
10
0
20
0
30
0
70
128
71
11
72
13
73
10
0
VERTEX
8
OBJECT__22
10
0
20
0
30
0
70
128
71
7
72
11
73
9
0
VERTEX
8
OBJECT__22
10
0
20
0
30
0
70
128
71
6
72
7
73
5
0
VERTEX
8
OBJECT__22
10
0
20
0
30
0
70
128
71
2
72
28
73
3
0
SEQEND
8
OBJECT__22
0
ENDSEC
0
EOF
