  0
SECTION
  2
HEADER
  9
$ACADVER
  1
AC1009
  9
$DWGCODEPAGE
  3
ansi_1252
  9
$INSBASE
 10
0.0
 20
0.0
 30
0.0
  9
$EXTMIN
 10
1.000000000000000E+20
 20
1.000000000000000E+20
 30
1.000000000000000E+20
  9
$EXTMAX
 10
-1.000000000000000E+20
 20
-1.000000000000000E+20
 30
-1.000000000000000E+20
  9
$LIMMIN
 10
0.0
 20
0.0
  9
$LIMMAX
 10
12.0
 20
9.0
  9
$ORTHOMODE
 70
     0
  9
$REGENMODE
 70
     1
  9
$FILLMODE
 70
     1
  9
$QTEXTMODE
 70
     0
  9
$MIRRTEXT
 70
     1
  9
$DRAGMODE
 70
     2
  9
$LTSCALE
 40
1.0
  9
$OSMODE
 70
    37
  9
$ATTMODE
 70
     1
  9
$TEXTSIZE
 40
0.2
  9
$TRACEWID
 40
0.05
  9
$TEXTSTYLE
  7
STANDARD
  9
$CLAYER
  8
0
  9
$CELTYPE
  6
BYLAYER
  9
$CECOLOR
 62
   256
  9
$DIMSCALE
 40
1.0
  9
$DIMASZ
 40
0.18
  9
$DIMEXO
 40
0.0625
  9
$DIMDLI
 40
0.38
  9
$DIMRND
 40
0.0
  9
$DIMDLE
 40
0.0
  9
$DIMEXE
 40
0.18
  9
$DIMTP
 40
0.0
  9
$DIMTM
 40
0.0
  9
$DIMTXT
 40
0.18
  9
$DIMCEN
 40
0.09
  9
$DIMTSZ
 40
0.0
  9
$DIMTOL
 70
     0
  9
$DIMLIM
 70
     0
  9
$DIMTIH
 70
     1
  9
$DIMTOH
 70
     1
  9
$DIMSE1
 70
     0
  9
$DIMSE2
 70
     0
  9
$DIMTAD
 70
     0
  9
$DIMZIN
 70
     0
  9
$DIMBLK
  1

  9
$DIMASO
 70
     1
  9
$DIMSHO
 70
     1
  9
$DIMPOST
  1

  9
$DIMAPOST
  1

  9
$DIMALT
 70
     0
  9
$DIMALTD
 70
     2
  9
$DIMALTF
 40
25.4
  9
$DIMLFAC
 40
1.0
  9
$DIMTOFL
 70
     0
  9
$DIMTVP
 40
0.0
  9
$DIMTIX
 70
     0
  9
$DIMSOXD
 70
     0
  9
$DIMSAH
 70
     0
  9
$DIMBLK1
  1

  9
$DIMBLK2
  1

  9
$DIMSTYLE
  2
STANDARD
  9
$DIMCLRD
 70
     0
  9
$DIMCLRE
 70
     0
  9
$DIMCLRT
 70
     0
  9
$DIMTFAC
 40
1.0
  9
$DIMGAP
 40
0.09
  9
$LUNITS
 70
     2
  9
$LUPREC
 70
     4
  9
$SKETCHINC
 40
0.1
  9
$FILLETRAD
 40
0.5
  9
$AUNITS
 70
     0
  9
$AUPREC
 70
     0
  9
$MENU
  1
.
  9
$ELEVATION
 40
0.0
  9
$PELEVATION
 40
0.0
  9
$THICKNESS
 40
0.0
  9
$LIMCHECK
 70
     0
  9
$CHAMFERA
 40
0.5
  9
$CHAMFERB
 40
0.5
  9
$SKPOLY
 70
     0
  9
$TDCREATE
 40
2455541.631580938
  9
$TDUPDATE
 40
2455541.631580938
  9
$TDINDWG
 40
0.0000000116
  9
$TDUSRTIMER
 40
0.0000000116
  9
$USRTIMER
 70
     1
  9
$ANGBASE
 50
0.0
  9
$ANGDIR
 70
     0
  9
$PDMODE
 70
     0
  9
$PDSIZE
 40
0.0
  9
$PLINEWID
 40
0.0
  9
$COORDS
 70
     1
  9
$SPLFRAME
 70
     0
  9
$SPLINETYPE
 70
     6
  9
$SPLINESEGS
 70
     8
  9
$ATTDIA
 70
     0
  9
$ATTREQ
 70
     1
  9
$HANDLING
 70
     1
  9
$HANDSEED
  5
6F1
  9
$SURFTAB1
 70
     6
  9
$SURFTAB2
 70
     6
  9
$SURFTYPE
 70
     6
  9
$SURFU
 70
     6
  9
$SURFV
 70
     6
  9
$UCSNAME
  2

  9
$UCSORG
 10
0.0
 20
0.0
 30
0.0
  9
$UCSXDIR
 10
1.0
 20
0.0
 30
0.0
  9
$UCSYDIR
 10
0.0
 20
1.0
 30
0.0
  9
$PUCSNAME
  2

  9
$PUCSORG
 10
0.0
 20
0.0
 30
0.0
  9
$PUCSXDIR
 10
1.0
 20
0.0
 30
0.0
  9
$PUCSYDIR
 10
0.0
 20
1.0
 30
0.0
  9
$USERI1
 70
     0
  9
$USERI2
 70
     0
  9
$USERI3
 70
     0
  9
$USERI4
 70
     0
  9
$USERI5
 70
     0
  9
$USERR1
 40
0.0
  9
$USERR2
 40
0.0
  9
$USERR3
 40
0.0
  9
$USERR4
 40
0.0
  9
$USERR5
 40
0.0
  9
$WORLDVIEW
 70
     1
  9
$SHADEDGE
 70
     3
  9
$SHADEDIF
 70
    70
  9
$TILEMODE
 70
     1
  9
$MAXACTVP
 70
    64
  9
$PLIMCHECK
 70
     0
  9
$PEXTMIN
 10
1.000000000000000E+20
 20
1.000000000000000E+20
 30
1.000000000000000E+20
  9
$PEXTMAX
 10
-1.000000000000000E+20
 20
-1.000000000000000E+20
 30
-1.000000000000000E+20
  9
$PLIMMIN
 10
0.0
 20
0.0
  9
$PLIMMAX
 10
12.0
 20
9.0
  9
$UNITMODE
 70
     0
  9
$VISRETAIN
 70
     1
  9
$PLINEGEN
 70
     0
  9
$PSLTSCALE
 70
     1
  0
ENDSEC
  0
SECTION
  2
TABLES
  0
TABLE
  2
VPORT
 70
     1
  0
VPORT
  2
*ACTIVE
 70
     0
 10
0.0
 20
0.0
 11
1.0
 21
1.0
 12
0.0
 22
0.0
 13
0.0
 23
0.0
 14
0.5
 24
0.5
 15
0.5
 25
0.5
 16
608.79296875
 26
347.8517456054688
 36
608.79296875
 17
68.56402587890625
 27
0.0
 37
9.33551025390625
 40
333.1531004394274
 41
1.972972972850329
 42
50.0
 43
0.0
 44
0.0
 50
0.0
 51
0.0
 71
     0
 72
   100
 73
     1
 74
     3
 75
     0
 76
     0
 77
     0
 78
     0
  0
ENDTAB
  0
TABLE
  2
LTYPE
 70
     1
  0
LTYPE
  2
CONTINUOUS
 70
     0
  3
Solid line
 72
    65
 73
     0
 40
0.0
  0
ENDTAB
  0
TABLE
  2
LAYER
 70
     2
  0
LAYER
  2
0
 70
     0
 62
     7
  6
CONTINUOUS
  0
LAYER
  2
LAYER_1
 70
     0
 62
     7
  6
CONTINUOUS
  0
ENDTAB
  0
TABLE
  2
STYLE
 70
     1
  0
STYLE
  2
STANDARD
 70
     0
 40
0.0
 41
1.0
 50
0.0
 71
     0
 42
0.2
  3
txt
  4

  0
ENDTAB
  0
TABLE
  2
VIEW
 70
     0
  0
ENDTAB
  0
TABLE
  2
UCS
 70
     0
  0
ENDTAB
  0
TABLE
  2
APPID
 70
     1
  0
APPID
  2
ACAD
 70
     0
  0
ENDTAB
  0
TABLE
  2
DIMSTYLE
 70
     1
  0
DIMSTYLE
  2
STANDARD
 70
     0
  3

  4

  5

  6

  7

 40
1.0
 41
0.18
 42
0.0625
 43
0.38
 44
0.18
 45
0.0
 46
0.0
 47
0.0
 48
0.0
140
0.18
141
0.09
142
0.0
143
25.4
144
1.0
145
0.0
146
1.0
147
0.09
 71
     0
 72
     0
 73
     1
 74
     1
 75
     0
 76
     0
 77
     0
 78
     0
170
     0
171
     2
172
     0
173
     0
174
     0
175
     0
176
     0
177
     0
178
     0
  0
ENDTAB
  0
ENDSEC
  0
SECTION
  2
BLOCKS
  0
BLOCK
  8
0
  2
$MODEL_SPACE
 70
     0
 10
0.0
 20
0.0
 30
0.0
  3
$MODEL_SPACE
  1

  0
ENDBLK
  5
21
  8
0
  0
BLOCK
 67
     1
  8
0
  2
$PAPER_SPACE
 70
     0
 10
0.0
 20
0.0
 30
0.0
  3
$PAPER_SPACE
  1

  0
ENDBLK
  5
1D
 67
     1
  8
0
  0
BLOCK
  8
0
  2
E3_NODE
 70
     0
 10
0.0
 20
0.0
 30
0.0
  3
E3_NODE
  1

  0
POLYLINE
  5
3C
  8
0
 62
     9
 66
     1
 10
0.0
 20
0.0
 30
0.0
 70
    64
 71
     8
 72
     6
  0
VERTEX
  5
3D
  8
0
 10
158.5709991455078
 20
-8.1850004196167
 30
137.5890045166016
 70
   192
  0
VERTEX
  5
3E
  8
0
 10
161.9089965820312
 20
0.0
 30
138.1779937744141
 70
   192
  0
VERTEX
  5
3F
  8
0
 10
158.5709991455078
 20
8.1850004196167
 30
137.5890045166016
 70
   192
  0
VERTEX
  5
40
  8
0
 10
142.4499969482422
 20
8.1850004196167
 30
134.7469940185547
 70
   192
  0
VERTEX
  5
41
  8
0
 10
142.4499969482422
 20
-8.1850004196167
 30
134.7469940185547
 70
   192
  0
VERTEX
  5
42
  8
0
 10
150.5099945068359
 20
-11.57499980926514
 30
136.1679992675781
 70
   192
  0
VERTEX
  5
43
  8
0
 10
150.5099945068359
 20
11.57499980926514
 30
136.1679992675781
 70
   192
  0
VERTEX
  5
44
  8
0
 10
139.1109924316406
 20
0.0
 30
134.1580047607422
 70
   192
  0
VERTEX
  5
45
  8
0
 62
     9
 10
0.0
 20
0.0
 30
0.0
 70
   128
 71
     3
 72
     2
 73
     1
  0
VERTEX
  5
46
  8
0
 62
     9
 10
0.0
 20
0.0
 30
0.0
 70
   128
 71
     6
 72
     5
 73
     4
  0
VERTEX
  5
47
  8
0
 62
     9
 10
0.0
 20
0.0
 30
0.0
 70
   128
 71
     1
 72
     7
 73
     3
  0
VERTEX
  5
48
  8
0
 62
     9
 10
0.0
 20
0.0
 30
0.0
 70
   128
 71
     5
 72
     8
 73
     4
  0
VERTEX
  5
49
  8
0
 62
     9
 10
0.0
 20
0.0
 30
0.0
 70
   128
 71
     4
 72
     1
 73
     6
  0
VERTEX
  5
4A
  8
0
 62
     9
 10
0.0
 20
0.0
 30
0.0
 70
   128
 71
     1
 72
     4
 73
     7
  0
SEQEND
  5
4B
  8
0
 62
     9
  0
ENDBLK
  5
4F
  8
0
  0
BLOCK
  8
0
  2
E3_NODE_1_
 70
     0
 10
0.0
 20
0.0
 30
0.0
  3
E3_NODE_1_
  1

  0
POLYLINE
  5
51
  8
0
 62
     9
 66
     1
 10
0.0
 20
0.0
 30
0.0
 70
    64
 71
    16
 72
    16
  0
VERTEX
  5
52
  8
0
 10
142.4499969482422
 20
-8.1850004196167
 30
134.7469940185547
 70
   192
  0
VERTEX
  5
53
  8
0
 10
144.7510070800781
 20
-8.1850004196167
 30
121.697998046875
 70
   192
  0
VERTEX
  5
54
  8
0
 10
152.8110046386719
 20
-11.57499980926514
 30
123.1190032958984
 70
   192
  0
VERTEX
  5
55
  8
0
 10
139.1109924316406
 20
0.0
 30
134.1580047607422
 70
   192
  0
VERTEX
  5
56
  8
0
 10
141.4120025634766
 20
0.0
 30
121.109001159668
 70
   192
  0
VERTEX
  5
57
  8
0
 10
144.7510070800781
 20
8.1850004196167
 30
121.697998046875
 70
   192
  0
VERTEX
  5
58
  8
0
 10
152.8110046386719
 20
11.57499980926514
 30
123.1190032958984
 70
   192
  0
VERTEX
  5
59
  8
0
 10
142.4499969482422
 20
8.1850004196167
 30
134.7469940185547
 70
   192
  0
VERTEX
  5
5A
  8
0
 10
160.8710021972656
 20
8.1850004196167
 30
124.5410003662109
 70
   192
  0
VERTEX
  5
5B
  8
0
 10
150.5099945068359
 20
11.57499980926514
 30
136.1679992675781
 70
   192
  0
VERTEX
  5
5C
  8
0
 10
161.9089965820312
 20
0.0
 30
138.1779937744141
 70
   192
  0
VERTEX
  5
5D
  8
0
 10
164.2100067138672
 20
0.0
 30
125.1289978027344
 70
   192
  0
VERTEX
  5
5E
  8
0
 10
158.5709991455078
 20
-8.1850004196167
 30
137.5890045166016
 70
   192
  0
VERTEX
  5
5F
  8
0
 10
160.8710021972656
 20
-8.1850004196167
 30
124.5410003662109
 70
   192
  0
VERTEX
  5
60
  8
0
 10
150.5099945068359
 20
-11.57499980926514
 30
136.1679992675781
 70
   192
  0
VERTEX
  5
61
  8
0
 10
158.5709991455078
 20
8.1850004196167
 30
137.5890045166016
 70
   192
  0
VERTEX
  5
62
  8
0
 62
     9
 10
0.0
 20
0.0
 30
0.0
 70
   128
 71
     3
 72
     2
 73
     1
  0
VERTEX
  5
63
  8
0
 62
     9
 10
0.0
 20
0.0
 30
0.0
 70
   128
 71
     2
 72
     5
 73
     4
  0
VERTEX
  5
64
  8
0
 62
     9
 10
0.0
 20
0.0
 30
0.0
 70
   128
 71
     4
 72
     5
 73
     6
  0
VERTEX
  5
65
  8
0
 62
     9
 10
0.0
 20
0.0
 30
0.0
 70
   128
 71
     8
 72
     6
 73
     7
  0
VERTEX
  5
66
  8
0
 62
     9
 10
0.0
 20
0.0
 30
0.0
 70
   128
 71
    10
 72
     7
 73
     9
  0
VERTEX
  5
67
  8
0
 62
     9
 10
0.0
 20
0.0
 30
0.0
 70
   128
 71
     9
 72
    12
 73
    11
  0
VERTEX
  5
68
  8
0
 62
     9
 10
0.0
 20
0.0
 30
0.0
 70
   128
 71
    14
 72
    13
 73
    11
  0
VERTEX
  5
69
  8
0
 62
     9
 10
0.0
 20
0.0
 30
0.0
 70
   128
 71
    14
 72
     3
 73
    15
  0
VERTEX
  5
6A
  8
0
 62
     9
 10
0.0
 20
0.0
 30
0.0
 70
   128
 71
    15
 72
    13
 73
    14
  0
VERTEX
  5
6B
  8
0
 62
     9
 10
0.0
 20
0.0
 30
0.0
 70
   128
 71
    11
 72
    12
 73
    14
  0
VERTEX
  5
6C
  8
0
 62
     9
 10
0.0
 20
0.0
 30
0.0
 70
   128
 71
    11
 72
    16
 73
     9
  0
VERTEX
  5
6D
  8
0
 62
     9
 10
0.0
 20
0.0
 30
0.0
 70
   128
 71
     9
 72
    16
 73
    10
  0
VERTEX
  5
6E
  8
0
 62
     9
 10
0.0
 20
0.0
 30
0.0
 70
   128
 71
     7
 72
    10
 73
     8
  0
VERTEX
  5
6F
  8
0
 62
     9
 10
0.0
 20
0.0
 30
0.0
 70
   128
 71
     6
 72
     8
 73
     4
  0
VERTEX
  5
70
  8
0
 62
     9
 10
0.0
 20
0.0
 30
0.0
 70
   128
 71
     4
 72
     1
 73
     2
  0
VERTEX
  5
71
  8
0
 62
     9
 10
0.0
 20
0.0
 30
0.0
 70
   128
 71
     1
 72
    15
 73
     3
  0
SEQEND
  5
72
  8
0
 62
     9
  0
ENDBLK
  5
75
  8
0
  0
BLOCK
  8
0
  2
E3_NODE_2_
 70
     0
 10
0.0
 20
0.0
 30
0.0
  3
E3_NODE_2_
  1

  0
POLYLINE
  5
77
  8
0
 62
     9
 66
     1
 10
0.0
 20
0.0
 30
0.0
 70
    64
 71
     8
 72
     6
  0
VERTEX
  5
78
  8
0
 10
160.8710021972656
 20
-8.1850004196167
 30
124.5410003662109
 70
   192
  0
VERTEX
  5
79
  8
0
 10
152.8110046386719
 20
11.57499980926514
 30
123.1190032958984
 70
   192
  0
VERTEX
  5
7A
  8
0
 10
160.8710021972656
 20
8.1850004196167
 30
124.5410003662109
 70
   192
  0
VERTEX
  5
7B
  8
0
 10
144.7510070800781
 20
-8.1850004196167
 30
121.697998046875
 70
   192
  0
VERTEX
  5
7C
  8
0
 10
141.4120025634766
 20
0.0
 30
121.109001159668
 70
   192
  0
VERTEX
  5
7D
  8
0
 10
144.7510070800781
 20
8.1850004196167
 30
121.697998046875
 70
   192
  0
VERTEX
  5
7E
  8
0
 10
164.2100067138672
 20
0.0
 30
125.1289978027344
 70
   192
  0
VERTEX
  5
7F
  8
0
 10
152.8110046386719
 20
-11.57499980926514
 30
123.1190032958984
 70
   192
  0
VERTEX
  5
80
  8
0
 62
     9
 10
0.0
 20
0.0
 30
0.0
 70
   128
 71
     3
 72
     2
 73
     1
  0
VERTEX
  5
81
  8
0
 62
     9
 10
0.0
 20
0.0
 30
0.0
 70
   128
 71
     6
 72
     5
 73
     4
  0
VERTEX
  5
82
  8
0
 62
     9
 10
0.0
 20
0.0
 30
0.0
 70
   128
 71
     1
 72
     7
 73
     3
  0
VERTEX
  5
83
  8
0
 62
     9
 10
0.0
 20
0.0
 30
0.0
 70
   128
 71
     4
 72
     8
 73
     2
  0
VERTEX
  5
84
  8
0
 62
     9
 10
0.0
 20
0.0
 30
0.0
 70
   128
 71
     4
 72
     2
 73
     6
  0
VERTEX
  5
85
  8
0
 62
     9
 10
0.0
 20
0.0
 30
0.0
 70
   128
 71
     2
 72
     8
 73
     1
  0
SEQEND
  5
86
  8
0
 62
     9
  0
ENDBLK
  5
89
  8
0
  0
BLOCK
  8
0
  2
E3_NODE_3_
 70
     0
 10
0.0
 20
0.0
 30
0.0
  3
E3_NODE_3_
  1

  0
POLYLINE
  5
8B
  8
0
 62
     9
 66
     1
 10
0.0
 20
0.0
 30
0.0
 70
    64
 71
     4
 72
     2
  0
VERTEX
  5
8C
  8
0
 10
-14.37600040435791
 20
68.62000274658203
 30
-18.75
 70
   192
  0
VERTEX
  5
8D
  8
0
 10
-17.37599945068359
 20
74.62000274658203
 30
-13.55399990081787
 70
   192
  0
VERTEX
  5
8E
  8
0
 10
-14.37600040435791
 20
80.62000274658203
 30
-18.75
 70
   192
  0
VERTEX
  5
8F
  8
0
 10
-11.37600040435791
 20
74.62000274658203
 30
-23.94599914550781
 70
   192
  0
VERTEX
  5
90
  8
0
 62
     9
 10
0.0
 20
0.0
 30
0.0
 70
   128
 71
     3
 72
     2
 73
     1
  0
VERTEX
  5
91
  8
0
 62
     9
 10
0.0
 20
0.0
 30
0.0
 70
   128
 71
     1
 72
     4
 73
     3
  0
SEQEND
  5
92
  8
0
 62
     9
  0
ENDBLK
  5
95
  8
0
  0
BLOCK
  8
0
  2
E3_NODE_4_
 70
     0
 10
0.0
 20
0.0
 30
0.0
  3
E3_NODE_4_
  1

  0
POLYLINE
  5
97
  8
0
 62
     9
 66
     1
 10
0.0
 20
0.0
 30
0.0
 70
    64
 71
    18
 72
    19
  0
VERTEX
  5
98
  8
0
 10
-17.37599945068359
 20
74.62000274658203
 30
-13.55399990081787
 70
   192
  0
VERTEX
  5
99
  8
0
 10
8.357999801635742
 20
78.5469970703125
 30
-0.386000007390976
 70
   192
  0
VERTEX
  5
9A
  8
0
 10
9.704999923706055
 20
80.54900360107422
 30
-4.881999969482422
 70
   192
  0
VERTEX
  5
9B
  8
0
 10
8.444000244140625
 20
74.62000274658203
 30
1.353999972343445
 70
   192
  0
VERTEX
  5
9C
  8
0
 10
8.440999984741211
 20
75.11399841308594
 30
1.327999949455261
 70
   192
  0
VERTEX
  5
9D
  8
0
 10
13.54699993133545
 20
77.62999725341797
 30
-8.621999740600586
 70
   192
  0
VERTEX
  5
9E
  8
0
 10
13.94299983978271
 20
74.56700134277344
 30
-8.812999725341797
 70
   192
  0
VERTEX
  5
9F
  8
0
 10
12.5649995803833
 20
78.7959976196289
 30
-8.170000076293945
 70
   192
  0
VERTEX
  5
A0
  8
0
 10
11.07900047302246
 20
79.5719985961914
 30
-6.289999961853027
 70
   192
  0
VERTEX
  5
A1
  8
0
 10
9.75100040435791
 20
80.61699676513672
 30
-5.034999847412109
 70
   192
  0
VERTEX
  5
A2
  8
0
 10
-11.37600040435791
 20
74.62000274658203
 30
-23.94599914550781
 70
   192
  0
VERTEX
  5
A3
  8
0
 10
-14.37600040435791
 20
80.62000274658203
 30
-18.75
 70
   192
  0
VERTEX
  5
A4
  8
0
 10
10.86999988555908
 20
69.04399871826172
 30
-6.504000186920166
 70
   192
  0
VERTEX
  5
A5
  8
0
 10
10.77499961853027
 20
68.93199920654297
 30
-6.434000015258789
 70
   192
  0
VERTEX
  5
A6
  8
0
 10
14.1569995880127
 20
72.91000366210938
 30
-8.916999816894531
 70
   192
  0
VERTEX
  5
A7
  8
0
 10
-14.37600040435791
 20
68.62000274658203
 30
-18.75
 70
   192
  0
VERTEX
  5
A8
  8
0
 10
10.02499961853027
 20
69.24500274658203
 30
-4.787000179290771
 70
   192
  0
VERTEX
  5
A9
  8
0
 10
8.435999870300293
 20
69.90799713134766
 30
-1.289999961853027
 70
   192
  0
VERTEX
  5
AA
  8
0
 62
     9
 10
0.0
 20
0.0
 30
0.0
 70
   128
 71
     3
 72
     2
 73
     1
  0
VERTEX
  5
AB
  8
0
 62
     9
 10
0.0
 20
0.0
 30
0.0
 70
   128
 71
     5
 72
     4
 73
     1
  0
VERTEX
  5
AC
  8
0
 62
     9
 10
0.0
 20
0.0
 30
0.0
 70
   128
 71
     1
 72
     2
 73
     5
  0
VERTEX
  5
AD
  8
0
 62
     9
 10
0.0
 20
0.0
 30
0.0
 70
   128
 71
     8
 72
     7
 73
     6
  0
VERTEX
  5
AE
  8
0
 62
     9
 10
0.0
 20
0.0
 30
0.0
 70
   128
 71
     6
 72
     9
 73
     8
  0
VERTEX
  5
AF
  8
0
 62
     9
 10
0.0
 20
0.0
 30
0.0
 70
   128
 71
     9
 72
    10
 73
     8
  0
VERTEX
  5
B0
  8
0
 62
     9
 10
0.0
 20
0.0
 30
0.0
 70
   128
 71
     8
 72
    10
 73
    11
  0
VERTEX
  5
B1
  8
0
 62
     9
 10
0.0
 20
0.0
 30
0.0
 70
   128
 71
    10
 72
     3
 73
    12
  0
VERTEX
  5
B2
  8
0
 62
     9
 10
0.0
 20
0.0
 30
0.0
 70
   128
 71
    12
 72
    11
 73
    10
  0
VERTEX
  5
B3
  8
0
 62
     9
 10
0.0
 20
0.0
 30
0.0
 70
   128
 71
    11
 72
     7
 73
     8
  0
VERTEX
  5
B4
  8
0
 62
     9
 10
0.0
 20
0.0
 30
0.0
 70
   128
 71
    14
 72
    13
 73
    11
  0
VERTEX
  5
B5
  8
0
 62
     9
 10
0.0
 20
0.0
 30
0.0
 70
   128
 71
    15
 72
     7
 73
    11
  0
VERTEX
  5
B6
  8
0
 62
     9
 10
0.0
 20
0.0
 30
0.0
 70
   128
 71
    11
 72
    13
 73
    15
  0
VERTEX
  5
B7
  8
0
 62
     9
 10
0.0
 20
0.0
 30
0.0
 70
   128
 71
    11
 72
    16
 73
    14
  0
VERTEX
  5
B8
  8
0
 62
     9
 10
0.0
 20
0.0
 30
0.0
 70
   128
 71
    17
 72
    16
 73
     1
  0
VERTEX
  5
B9
  8
0
 62
     9
 10
0.0
 20
0.0
 30
0.0
 70
   128
 71
     1
 72
    18
 73
    17
  0
VERTEX
  5
BA
  8
0
 62
     9
 10
0.0
 20
0.0
 30
0.0
 70
   128
 71
     1
 72
     4
 73
    18
  0
VERTEX
  5
BB
  8
0
 62
     9
 10
0.0
 20
0.0
 30
0.0
 70
   128
 71
    16
 72
    17
 73
    14
  0
VERTEX
  5
BC
  8
0
 62
     9
 10
0.0
 20
0.0
 30
0.0
 70
   128
 71
     1
 72
    12
 73
     3
  0
SEQEND
  5
BD
  8
0
 62
     9
  0
ENDBLK
  5
C0
  8
0
  0
BLOCK
  8
0
  2
E3_NODE_5_
 70
     0
 10
0.0
 20
0.0
 30
0.0
  3
E3_NODE_5_
  1

  0
POLYLINE
  5
C2
  8
0
 62
     9
 66
     1
 10
0.0
 20
0.0
 30
0.0
 70
    64
 71
    53
 72
    59
  0
VERTEX
  5
C3
  8
0
 10
20.12700080871582
 20
82.12000274658203
 30
9.536999702453613
 70
   192
  0
VERTEX
  5
C4
  8
0
 10
17.91399955749512
 20
80.61699676513672
 30
9.748000144958496
 70
   192
  0
VERTEX
  5
C5
  8
0
 10
18.06900024414062
 20
80.54900360107422
 30
9.711000442504883
 70
   192
  0
VERTEX
  5
C6
  8
0
 10
9.656000137329102
 20
82.12000274658203
 30
4.875
 70
   192
  0
VERTEX
  5
C7
  8
0
 10
12.90999984741211
 20
77.62999725341797
 30
8.253999710083008
 70
   192
  0
VERTEX
  5
C8
  8
0
 10
9.656000137329102
 20
59.11999893188477
 30
4.875
 70
   192
  0
VERTEX
  5
C9
  8
0
 10
12.34899997711182
 20
72.91000366210938
 30
7.873000144958496
 70
   192
  0
VERTEX
  5
CA
  8
0
 10
12.54599952697754
 20
74.56700134277344
 30
8.006999969482422
 70
   192
  0
VERTEX
  5
CB
  8
0
 10
16.19000053405762
 20
68.93199920654297
 30
9.560999870300293
 70
   192
  0
VERTEX
  5
CC
  8
0
 10
20.12700080871582
 20
59.11999893188477
 30
9.536999702453613
 70
   192
  0
VERTEX
  5
CD
  8
0
 10
17.99200057983398
 20
69.24500274658203
 30
9.38599967956543
 70
   192
  0
VERTEX
  5
CE
  8
0
 10
20.09199905395508
 20
69.60900115966797
 30
9.182000160217285
 70
   192
  0
VERTEX
  5
CF
  8
0
 10
27.79700088500977
 20
59.11999893188477
 30
1.019000053405762
 70
   192
  0
VERTEX
  5
D0
  8
0
 10
27.8430004119873
 20
71.61000061035156
 30
0.3680000007152557
 70
   192
  0
VERTEX
  5
D1
  8
0
 10
27.81100082397461
 20
74.6729965209961
 30
0.8069999814033508
 70
   192
  0
VERTEX
  5
D2
  8
0
 10
26.54400062561035
 20
59.11999893188477
 30
-4.875
 70
   192
  0
VERTEX
  5
D3
  8
0
 10
26.63500022888184
 20
68.62300109863281
 30
-4.712999820709229
 70
   192
  0
VERTEX
  5
D4
  8
0
 10
22.06599998474121
 20
59.11999893188477
 30
-8.906999588012695
 70
   192
  0
VERTEX
  5
D5
  8
0
 10
26.52599906921387
 20
68.69100189208984
 30
-4.828999996185303
 70
   192
  0
VERTEX
  5
D6
  8
0
 10
23.30599975585938
 20
70.69300079345703
 30
-8.244000434875488
 70
   192
  0
VERTEX
  5
D7
  8
0
 10
22.05599975585938
 20
73.50399780273438
 30
-8.88700008392334
 70
   192
  0
VERTEX
  5
D8
  8
0
 10
21.81500053405762
 20
69.90799713134766
 30
9.015000343322754
 70
   192
  0
VERTEX
  5
D9
  8
0
 10
22.63699913024902
 20
78.5469970703125
 30
8.630000114440918
 70
   192
  0
VERTEX
  5
DA
  8
0
 10
27.79400062561035
 20
76.33000183105469
 30
1.044000029563904
 70
   192
  0
VERTEX
  5
DB
  8
0
 10
27.79100036621094
 20
76.35299682617188
 30
1.019999980926514
 70
   192
  0
VERTEX
  5
DC
  8
0
 10
20.05699920654297
 20
79.677001953125
 30
9.241000175476074
 70
   192
  0
VERTEX
  5
DD
  8
0
 10
27.79700088500977
 20
82.12000274658203
 30
1.019000053405762
 70
   192
  0
VERTEX
  5
DE
  8
0
 10
27.79599952697754
 20
76.15599822998047
 30
1.019000053405762
 70
   192
  0
VERTEX
  5
DF
  8
0
 10
24.10000038146973
 20
74.62000274658203
 30
7.684999942779541
 70
   192
  0
VERTEX
  5
E0
  8
0
 10
24.07999992370605
 20
75.11399841308594
 30
7.701000213623047
 70
   192
  0
VERTEX
  5
E1
  8
0
 10
26.54400062561035
 20
82.12000274658203
 30
-4.875
 70
   192
  0
VERTEX
  5
E2
  8
0
 10
26.28300094604492
 20
79.99500274658203
 30
-4.598999977111816
 70
   192
  0
VERTEX
  5
E3
  8
0
 10
24.04899978637695
 20
79.33200073242188
 30
-7.723999977111816
 70
   192
  0
VERTEX
  5
E4
  8
0
 10
27.33499908447266
 20
80.30799865722656
 30
-3.127000093460083
 70
   192
  0
VERTEX
  5
E5
  8
0
 10
22.06599998474121
 20
82.12000274658203
 30
-8.906999588012695
 70
   192
  0
VERTEX
  5
E6
  8
0
 10
13.54699993133545
 20
77.62999725341797
 30
-8.621999740600586
 70
   192
  0
VERTEX
  5
E7
  8
0
 10
11.07900047302246
 20
79.5719985961914
 30
-6.289999961853027
 70
   192
  0
VERTEX
  5
E8
  8
0
 10
13.94299983978271
 20
74.56700134277344
 30
-8.812999725341797
 70
   192
  0
VERTEX
  5
E9
  8
0
 10
21.75600051879883
 20
74.62000274658203
 30
-9.038999557495117
 70
   192
  0
VERTEX
  5
EA
  8
0
 10
21.78000068664551
 20
74.1259994506836
 30
-9.029000282287598
 70
   192
  0
VERTEX
  5
EB
  8
0
 10
14.1569995880127
 20
72.91000366210938
 30
-8.916999816894531
 70
   192
  0
VERTEX
  5
EC
  8
0
 10
22.04700088500977
 20
75.21800231933594
 30
-8.871999740600586
 70
   192
  0
VERTEX
  5
ED
  8
0
 10
10.85400009155273
 20
59.11999893188477
 30
-6.52400016784668
 70
   192
  0
VERTEX
  5
EE
  8
0
 10
10.86999988555908
 20
69.04399871826172
 30
-6.504000186920166
 70
   192
  0
VERTEX
  5
EF
  8
0
 10
8.435999870300293
 20
69.90799713134766
 30
-1.289999961853027
 70
   192
  0
VERTEX
  5
F0
  8
0
 10
10.02499961853027
 20
69.24500274658203
 30
-4.787000179290771
 70
   192
  0
VERTEX
  5
F1
  8
0
 10
8.440999984741211
 20
75.11399841308594
 30
1.327999949455261
 70
   192
  0
VERTEX
  5
F2
  8
0
 10
8.444000244140625
 20
74.62000274658203
 30
1.353999972343445
 70
   192
  0
VERTEX
  5
F3
  8
0
 10
8.357999801635742
 20
78.5469970703125
 30
-0.386000007390976
 70
   192
  0
VERTEX
  5
F4
  8
0
 10
10.85400009155273
 20
82.12000274658203
 30
-6.52400016784668
 70
   192
  0
VERTEX
  5
F5
  8
0
 10
9.75100040435791
 20
80.61699676513672
 30
-5.034999847412109
 70
   192
  0
VERTEX
  5
F6
  8
0
 10
9.704999923706055
 20
80.54900360107422
 30
-4.881999969482422
 70
   192
  0
VERTEX
  5
F7
  8
0
 10
10.77499961853027
 20
68.93199920654297
 30
-6.434000015258789
 70
   192
  0
VERTEX
  5
F8
  8
0
 62
     9
 10
0.0
 20
0.0
 30
0.0
 70
   128
 71
     3
 72
     2
 73
     1
  0
VERTEX
  5
F9
  8
0
 62
     9
 10
0.0
 20
0.0
 30
0.0
 70
   128
 71
     2
 72
     5
 73
     4
  0
VERTEX
  5
FA
  8
0
 62
     9
 10
0.0
 20
0.0
 30
0.0
 70
   128
 71
     7
 72
     6
 73
     4
  0
VERTEX
  5
FB
  8
0
 62
     9
 10
0.0
 20
0.0
 30
0.0
 70
   128
 71
     4
 72
     8
 73
     7
  0
VERTEX
  5
FC
  8
0
 62
     9
 10
0.0
 20
0.0
 30
0.0
 70
   128
 71
     4
 72
     5
 73
     8
  0
VERTEX
  5
FD
  8
0
 62
     9
 10
0.0
 20
0.0
 30
0.0
 70
   128
 71
     7
 72
     9
 73
     6
  0
VERTEX
  5
FE
  8
0
 62
     9
 10
0.0
 20
0.0
 30
0.0
 70
   128
 71
     9
 72
    11
 73
    10
  0
VERTEX
  5
FF
  8
0
 62
     9
 10
0.0
 20
0.0
 30
0.0
 70
   128
 71
    11
 72
    12
 73
    10
  0
VERTEX
  5
100
  8
0
 62
     9
 10
0.0
 20
0.0
 30
0.0
 70
   128
 71
    10
 72
     6
 73
     9
  0
VERTEX
  5
101
  8
0
 62
     9
 10
0.0
 20
0.0
 30
0.0
 70
   128
 71
     4
 72
     1
 73
     2
  0
VERTEX
  5
102
  8
0
 62
     9
 10
0.0
 20
0.0
 30
0.0
 70
   128
 71
    15
 72
    14
 73
    13
  0
VERTEX
  5
103
  8
0
 62
     9
 10
0.0
 20
0.0
 30
0.0
 70
   128
 71
    17
 72
    16
 73
    13
  0
VERTEX
  5
104
  8
0
 62
     9
 10
0.0
 20
0.0
 30
0.0
 70
   128
 71
    13
 72
    14
 73
    17
  0
VERTEX
  5
105
  8
0
 62
     9
 10
0.0
 20
0.0
 30
0.0
 70
   128
 71
    17
 72
    19
 73
    18
  0
VERTEX
  5
106
  8
0
 62
     9
 10
0.0
 20
0.0
 30
0.0
 70
   128
 71
    19
 72
    20
 73
    18
  0
VERTEX
  5
107
  8
0
 62
     9
 10
0.0
 20
0.0
 30
0.0
 70
   128
 71
    20
 72
    21
 73
    18
  0
VERTEX
  5
108
  8
0
 62
     9
 10
0.0
 20
0.0
 30
0.0
 70
   128
 71
    18
 72
    16
 73
    17
  0
VERTEX
  5
109
  8
0
 62
     9
 10
0.0
 20
0.0
 30
0.0
 70
   128
 71
    22
 72
    13
 73
    10
  0
VERTEX
  5
10A
  8
0
 62
     9
 10
0.0
 20
0.0
 30
0.0
 70
   128
 71
    25
 72
    24
 73
    23
  0
VERTEX
  5
10B
  8
0
 62
     9
 10
0.0
 20
0.0
 30
0.0
 70
   128
 71
    23
 72
    26
 73
     1
  0
VERTEX
  5
10C
  8
0
 62
     9
 10
0.0
 20
0.0
 30
0.0
 70
   128
 71
     1
 72
    27
 73
    23
  0
VERTEX
  5
10D
  8
0
 62
     9
 10
0.0
 20
0.0
 30
0.0
 70
   128
 71
    29
 72
    28
 73
    13
  0
VERTEX
  5
10E
  8
0
 62
     9
 10
0.0
 20
0.0
 30
0.0
 70
   128
 71
    30
 72
    24
 73
    28
  0
VERTEX
  5
10F
  8
0
 62
     9
 10
0.0
 20
0.0
 30
0.0
 70
   128
 71
    30
 72
    23
 73
    24
  0
VERTEX
  5
110
  8
0
 62
     9
 10
0.0
 20
0.0
 30
0.0
 70
   128
 71
    28
 72
    29
 73
    30
  0
VERTEX
  5
111
  8
0
 62
     9
 10
0.0
 20
0.0
 30
0.0
 70
   128
 71
    13
 72
    22
 73
    29
  0
VERTEX
  5
112
  8
0
 62
     9
 10
0.0
 20
0.0
 30
0.0
 70
   128
 71
    23
 72
    27
 73
    25
  0
VERTEX
  5
113
  8
0
 62
     9
 10
0.0
 20
0.0
 30
0.0
 70
   128
 71
    33
 72
    32
 73
    31
  0
VERTEX
  5
114
  8
0
 62
     9
 10
0.0
 20
0.0
 30
0.0
 70
   128
 71
    34
 72
    27
 73
    31
  0
VERTEX
  5
115
  8
0
 62
     9
 10
0.0
 20
0.0
 30
0.0
 70
   128
 71
    31
 72
    32
 73
    34
  0
VERTEX
  5
116
  8
0
 62
     9
 10
0.0
 20
0.0
 30
0.0
 70
   128
 71
    31
 72
    35
 73
    33
  0
VERTEX
  5
117
  8
0
 62
     9
 10
0.0
 20
0.0
 30
0.0
 70
   128
 71
    34
 72
    25
 73
    27
  0
VERTEX
  5
118
  8
0
 62
     9
 10
0.0
 20
0.0
 30
0.0
 70
   128
 71
    37
 72
    36
 73
    35
  0
VERTEX
  5
119
  8
0
 62
     9
 10
0.0
 20
0.0
 30
0.0
 70
   128
 71
    40
 72
    39
 73
    38
  0
VERTEX
  5
11A
  8
0
 62
     9
 10
0.0
 20
0.0
 30
0.0
 70
   128
 71
    38
 72
    41
 73
    40
  0
VERTEX
  5
11B
  8
0
 62
     9
 10
0.0
 20
0.0
 30
0.0
 70
   128
 71
    39
 72
    36
 73
    38
  0
VERTEX
  5
11C
  8
0
 62
     9
 10
0.0
 20
0.0
 30
0.0
 70
   128
 71
    42
 72
    35
 73
    36
  0
VERTEX
  5
11D
  8
0
 62
     9
 10
0.0
 20
0.0
 30
0.0
 70
   128
 71
    36
 72
    39
 73
    42
  0
VERTEX
  5
11E
  8
0
 62
     9
 10
0.0
 20
0.0
 30
0.0
 70
   128
 71
    41
 72
    21
 73
    40
  0
VERTEX
  5
11F
  8
0
 62
     9
 10
0.0
 20
0.0
 30
0.0
 70
   128
 71
    44
 72
    43
 73
    18
  0
VERTEX
  5
120
  8
0
 62
     9
 10
0.0
 20
0.0
 30
0.0
 70
   128
 71
    18
 72
    41
 73
    44
  0
VERTEX
  5
121
  8
0
 62
     9
 10
0.0
 20
0.0
 30
0.0
 70
   128
 71
    18
 72
    21
 73
    41
  0
VERTEX
  5
122
  8
0
 62
     9
 10
0.0
 20
0.0
 30
0.0
 70
   128
 71
    46
 72
    45
 73
     6
  0
VERTEX
  5
123
  8
0
 62
     9
 10
0.0
 20
0.0
 30
0.0
 70
   128
 71
     6
 72
    43
 73
    46
  0
VERTEX
  5
124
  8
0
 62
     9
 10
0.0
 20
0.0
 30
0.0
 70
   128
 71
    48
 72
    47
 73
     4
  0
VERTEX
  5
125
  8
0
 62
     9
 10
0.0
 20
0.0
 30
0.0
 70
   128
 71
    47
 72
    49
 73
     4
  0
VERTEX
  5
126
  8
0
 62
     9
 10
0.0
 20
0.0
 30
0.0
 70
   128
 71
     4
 72
     6
 73
    48
  0
VERTEX
  5
127
  8
0
 62
     9
 10
0.0
 20
0.0
 30
0.0
 70
   128
 71
    51
 72
    50
 73
     4
  0
VERTEX
  5
128
  8
0
 62
     9
 10
0.0
 20
0.0
 30
0.0
 70
   128
 71
     4
 72
    52
 73
    51
  0
VERTEX
  5
129
  8
0
 62
     9
 10
0.0
 20
0.0
 30
0.0
 70
   128
 71
     4
 72
    49
 73
    52
  0
VERTEX
  5
12A
  8
0
 62
     9
 10
0.0
 20
0.0
 30
0.0
 70
   128
 71
     6
 72
    45
 73
    48
  0
VERTEX
  5
12B
  8
0
 62
     9
 10
0.0
 20
0.0
 30
0.0
 70
   128
 71
    51
 72
    37
 73
    50
  0
VERTEX
  5
12C
  8
0
 62
     9
 10
0.0
 20
0.0
 30
0.0
 70
   128
 71
    43
 72
    53
 73
    46
  0
VERTEX
  5
12D
  8
0
 62
     9
 10
0.0
 20
0.0
 30
0.0
 70
   128
 71
    43
 72
    44
 73
    53
  0
VERTEX
  5
12E
  8
0
 62
     9
 10
0.0
 20
0.0
 30
0.0
 70
   128
 71
    35
 72
    50
 73
    37
  0
VERTEX
  5
12F
  8
0
 62
     9
 10
0.0
 20
0.0
 30
0.0
 70
   128
 71
    35
 72
    42
 73
    33
  0
VERTEX
  5
130
  8
0
 62
     9
 10
0.0
 20
0.0
 30
0.0
 70
   128
 71
    10
 72
    12
 73
    22
  0
VERTEX
  5
131
  8
0
 62
     9
 10
0.0
 20
0.0
 30
0.0
 70
   128
 71
    13
 72
    28
 73
    15
  0
VERTEX
  5
132
  8
0
 62
     9
 10
0.0
 20
0.0
 30
0.0
 70
   128
 71
     1
 72
    26
 73
     3
  0
SEQEND
  5
133
  8
0
 62
     9
  0
ENDBLK
  5
136
  8
0
  0
BLOCK
  8
0
  2
E3_NODE_6_
 70
     0
 10
0.0
 20
0.0
 30
0.0
  3
E3_NODE_6_
  1

  0
POLYLINE
  5
138
  8
0
 62
     9
 66
     1
 10
0.0
 20
0.0
 30
0.0
 70
    64
 71
     6
 72
     4
  0
VERTEX
  5
139
  8
0
 10
9.656000137329102
 20
82.12000274658203
 30
4.875
 70
   192
  0
VERTEX
  5
13A
  8
0
 10
26.54400062561035
 20
82.12000274658203
 30
-4.875
 70
   192
  0
VERTEX
  5
13B
  8
0
 10
22.06599998474121
 20
82.12000274658203
 30
-8.906999588012695
 70
   192
  0
VERTEX
  5
13C
  8
0
 10
20.12700080871582
 20
82.12000274658203
 30
9.536999702453613
 70
   192
  0
VERTEX
  5
13D
  8
0
 10
27.79700088500977
 20
82.12000274658203
 30
1.019000053405762
 70
   192
  0
VERTEX
  5
13E
  8
0
 10
10.85400009155273
 20
82.12000274658203
 30
-6.52400016784668
 70
   192
  0
VERTEX
  5
13F
  8
0
 62
     9
 10
0.0
 20
0.0
 30
0.0
 70
   128
 71
     3
 72
     2
 73
     1
  0
VERTEX
  5
140
  8
0
 62
     9
 10
0.0
 20
0.0
 30
0.0
 70
   128
 71
     5
 72
     4
 73
     1
  0
VERTEX
  5
141
  8
0
 62
     9
 10
0.0
 20
0.0
 30
0.0
 70
   128
 71
     1
 72
     2
 73
     5
  0
VERTEX
  5
142
  8
0
 62
     9
 10
0.0
 20
0.0
 30
0.0
 70
   128
 71
     1
 72
     6
 73
     3
  0
SEQEND
  5
143
  8
0
 62
     9
  0
ENDBLK
  5
146
  8
0
  0
BLOCK
  8
0
  2
E3_NODE_7_
 70
     0
 10
0.0
 20
0.0
 30
0.0
  3
E3_NODE_7_
  1

  0
POLYLINE
  5
148
  8
0
 62
     9
 66
     1
 10
0.0
 20
0.0
 30
0.0
 70
    64
 71
    18
 72
    19
  0
VERTEX
  5
149
  8
0
 10
24.10000038146973
 20
74.62000274658203
 30
37.5
 70
   192
  0
VERTEX
  5
14A
  8
0
 10
20.05699920654297
 20
79.677001953125
 30
9.241000175476074
 70
   192
  0
VERTEX
  5
14B
  8
0
 10
18.06900024414062
 20
80.54900360107422
 30
9.711000442504883
 70
   192
  0
VERTEX
  5
14C
  8
0
 10
22.63699913024902
 20
78.5469970703125
 30
8.630000114440918
 70
   192
  0
VERTEX
  5
14D
  8
0
 10
24.10000038146973
 20
74.62000274658203
 30
7.684999942779541
 70
   192
  0
VERTEX
  5
14E
  8
0
 10
24.07999992370605
 20
75.11399841308594
 30
7.701000213623047
 70
   192
  0
VERTEX
  5
14F
  8
0
 10
12.90999984741211
 20
77.62999725341797
 30
8.253999710083008
 70
   192
  0
VERTEX
  5
150
  8
0
 10
12.54599952697754
 20
74.56700134277344
 30
8.006999969482422
 70
   192
  0
VERTEX
  5
151
  8
0
 10
13.79199981689453
 20
78.7959976196289
 30
8.878000259399414
 70
   192
  0
VERTEX
  5
152
  8
0
 10
17.91399955749512
 20
80.61699676513672
 30
9.748000144958496
 70
   192
  0
VERTEX
  5
153
  8
0
 10
12.10000038146973
 20
74.62000274658203
 30
37.5
 70
   192
  0
VERTEX
  5
154
  8
0
 10
18.10000038146973
 20
80.62000274658203
 30
37.5
 70
   192
  0
VERTEX
  5
155
  8
0
 10
12.34899997711182
 20
72.91000366210938
 30
7.873000144958496
 70
   192
  0
VERTEX
  5
156
  8
0
 10
16.19000053405762
 20
68.93199920654297
 30
9.560999870300293
 70
   192
  0
VERTEX
  5
157
  8
0
 10
18.10000038146973
 20
68.62000274658203
 30
37.5
 70
   192
  0
VERTEX
  5
158
  8
0
 10
17.99200057983398
 20
69.24500274658203
 30
9.38599967956543
 70
   192
  0
VERTEX
  5
159
  8
0
 10
20.09199905395508
 20
69.60900115966797
 30
9.182000160217285
 70
   192
  0
VERTEX
  5
15A
  8
0
 10
21.81500053405762
 20
69.90799713134766
 30
9.015000343322754
 70
   192
  0
VERTEX
  5
15B
  8
0
 62
     9
 10
0.0
 20
0.0
 30
0.0
 70
   128
 71
     3
 72
     2
 73
     1
  0
VERTEX
  5
15C
  8
0
 62
     9
 10
0.0
 20
0.0
 30
0.0
 70
   128
 71
     2
 72
     4
 73
     1
  0
VERTEX
  5
15D
  8
0
 62
     9
 10
0.0
 20
0.0
 30
0.0
 70
   128
 71
     6
 72
     5
 73
     1
  0
VERTEX
  5
15E
  8
0
 62
     9
 10
0.0
 20
0.0
 30
0.0
 70
   128
 71
     1
 72
     4
 73
     6
  0
VERTEX
  5
15F
  8
0
 62
     9
 10
0.0
 20
0.0
 30
0.0
 70
   128
 71
     9
 72
     8
 73
     7
  0
VERTEX
  5
160
  8
0
 62
     9
 10
0.0
 20
0.0
 30
0.0
 70
   128
 71
     7
 72
    10
 73
     9
  0
VERTEX
  5
161
  8
0
 62
     9
 10
0.0
 20
0.0
 30
0.0
 70
   128
 71
     9
 72
    10
 73
    11
  0
VERTEX
  5
162
  8
0
 62
     9
 10
0.0
 20
0.0
 30
0.0
 70
   128
 71
    10
 72
     3
 73
    12
  0
VERTEX
  5
163
  8
0
 62
     9
 10
0.0
 20
0.0
 30
0.0
 70
   128
 71
    12
 72
    11
 73
    10
  0
VERTEX
  5
164
  8
0
 62
     9
 10
0.0
 20
0.0
 30
0.0
 70
   128
 71
    11
 72
     8
 73
     9
  0
VERTEX
  5
165
  8
0
 62
     9
 10
0.0
 20
0.0
 30
0.0
 70
   128
 71
    14
 72
    13
 73
    11
  0
VERTEX
  5
166
  8
0
 62
     9
 10
0.0
 20
0.0
 30
0.0
 70
   128
 71
    13
 72
     8
 73
    11
  0
VERTEX
  5
167
  8
0
 62
     9
 10
0.0
 20
0.0
 30
0.0
 70
   128
 71
    11
 72
    15
 73
    14
  0
VERTEX
  5
168
  8
0
 62
     9
 10
0.0
 20
0.0
 30
0.0
 70
   128
 71
    16
 72
    15
 73
     1
  0
VERTEX
  5
169
  8
0
 62
     9
 10
0.0
 20
0.0
 30
0.0
 70
   128
 71
     1
 72
    17
 73
    16
  0
VERTEX
  5
16A
  8
0
 62
     9
 10
0.0
 20
0.0
 30
0.0
 70
   128
 71
     1
 72
    18
 73
    17
  0
VERTEX
  5
16B
  8
0
 62
     9
 10
0.0
 20
0.0
 30
0.0
 70
   128
 71
     1
 72
     5
 73
    18
  0
VERTEX
  5
16C
  8
0
 62
     9
 10
0.0
 20
0.0
 30
0.0
 70
   128
 71
    15
 72
    16
 73
    14
  0
VERTEX
  5
16D
  8
0
 62
     9
 10
0.0
 20
0.0
 30
0.0
 70
   128
 71
     1
 72
    12
 73
     3
  0
SEQEND
  5
16E
  8
0
 62
     9
  0
ENDBLK
  5
171
  8
0
  0
BLOCK
  8
0
  2
E3_NODE_8_
 70
     0
 10
0.0
 20
0.0
 30
0.0
  3
E3_NODE_8_
  1

  0
POLYLINE
  5
173
  8
0
 62
     9
 66
     1
 10
0.0
 20
0.0
 30
0.0
 70
    64
 71
     4
 72
     2
  0
VERTEX
  5
174
  8
0
 10
12.10000038146973
 20
74.62000274658203
 30
37.5
 70
   192
  0
VERTEX
  5
175
  8
0
 10
18.10000038146973
 20
68.62000274658203
 30
37.5
 70
   192
  0
VERTEX
  5
176
  8
0
 10
24.10000038146973
 20
74.62000274658203
 30
37.5
 70
   192
  0
VERTEX
  5
177
  8
0
 10
18.10000038146973
 20
80.62000274658203
 30
37.5
 70
   192
  0
VERTEX
  5
178
  8
0
 62
     9
 10
0.0
 20
0.0
 30
0.0
 70
   128
 71
     3
 72
     2
 73
     1
  0
VERTEX
  5
179
  8
0
 62
     9
 10
0.0
 20
0.0
 30
0.0
 70
   128
 71
     1
 72
     4
 73
     3
  0
SEQEND
  5
17A
  8
0
 62
     9
  0
ENDBLK
  5
17D
  8
0
  0
BLOCK
  8
0
  2
E3_NODE_9_
 70
     0
 10
0.0
 20
0.0
 30
0.0
  3
E3_NODE_9_
  1

  0
POLYLINE
  5
17F
  8
0
 62
     9
 66
     1
 10
0.0
 20
0.0
 30
0.0
 70
    64
 71
    19
 72
    19
  0
VERTEX
  5
180
  8
0
 10
47.57600021362305
 20
74.62000274658203
 30
-23.94599914550781
 70
   192
  0
VERTEX
  5
181
  8
0
 10
24.04899978637695
 20
79.33200073242188
 30
-7.723999977111816
 70
   192
  0
VERTEX
  5
182
  8
0
 10
26.28300094604492
 20
79.99500274658203
 30
-4.598999977111816
 70
   192
  0
VERTEX
  5
183
  8
0
 10
21.75600051879883
 20
74.62000274658203
 30
-9.038999557495117
 70
   192
  0
VERTEX
  5
184
  8
0
 10
22.04700088500977
 20
75.21800231933594
 30
-8.871999740600586
 70
   192
  0
VERTEX
  5
185
  8
0
 10
50.57600021362305
 20
80.62000274658203
 30
-18.75
 70
   192
  0
VERTEX
  5
186
  8
0
 10
27.79599952697754
 20
76.15599822998047
 30
1.019000053405762
 70
   192
  0
VERTEX
  5
187
  8
0
 10
27.81100082397461
 20
74.6729965209961
 30
0.8069999814033508
 70
   192
  0
VERTEX
  5
188
  8
0
 10
27.79100036621094
 20
76.35299682617188
 30
1.019999980926514
 70
   192
  0
VERTEX
  5
189
  8
0
 10
27.79400062561035
 20
76.33000183105469
 30
1.044000029563904
 70
   192
  0
VERTEX
  5
18A
  8
0
 10
27.33499908447266
 20
80.30799865722656
 30
-3.127000093460083
 70
   192
  0
VERTEX
  5
18B
  8
0
 10
53.57600021362305
 20
74.62000274658203
 30
-13.55399990081787
 70
   192
  0
VERTEX
  5
18C
  8
0
 10
27.8430004119873
 20
71.61000061035156
 30
0.3680000007152557
 70
   192
  0
VERTEX
  5
18D
  8
0
 10
26.63500022888184
 20
68.62300109863281
 30
-4.712999820709229
 70
   192
  0
VERTEX
  5
18E
  8
0
 10
50.57600021362305
 20
68.62000274658203
 30
-18.75
 70
   192
  0
VERTEX
  5
18F
  8
0
 10
22.05599975585938
 20
73.50399780273438
 30
-8.88700008392334
 70
   192
  0
VERTEX
  5
190
  8
0
 10
21.78000068664551
 20
74.1259994506836
 30
-9.029000282287598
 70
   192
  0
VERTEX
  5
191
  8
0
 10
23.30599975585938
 20
70.69300079345703
 30
-8.244000434875488
 70
   192
  0
VERTEX
  5
192
  8
0
 10
26.52599906921387
 20
68.69100189208984
 30
-4.828999996185303
 70
   192
  0
VERTEX
  5
193
  8
0
 62
     9
 10
0.0
 20
0.0
 30
0.0
 70
   128
 71
     3
 72
     2
 73
     1
  0
VERTEX
  5
194
  8
0
 62
     9
 10
0.0
 20
0.0
 30
0.0
 70
   128
 71
     5
 72
     4
 73
     1
  0
VERTEX
  5
195
  8
0
 62
     9
 10
0.0
 20
0.0
 30
0.0
 70
   128
 71
     1
 72
     2
 73
     5
  0
VERTEX
  5
196
  8
0
 62
     9
 10
0.0
 20
0.0
 30
0.0
 70
   128
 71
     8
 72
     7
 73
     6
  0
VERTEX
  5
197
  8
0
 62
     9
 10
0.0
 20
0.0
 30
0.0
 70
   128
 71
    10
 72
     9
 73
     6
  0
VERTEX
  5
198
  8
0
 62
     9
 10
0.0
 20
0.0
 30
0.0
 70
   128
 71
     9
 72
    11
 73
     6
  0
VERTEX
  5
199
  8
0
 62
     9
 10
0.0
 20
0.0
 30
0.0
 70
   128
 71
     6
 72
     7
 73
    10
  0
VERTEX
  5
19A
  8
0
 62
     9
 10
0.0
 20
0.0
 30
0.0
 70
   128
 71
    11
 72
     3
 73
     6
  0
VERTEX
  5
19B
  8
0
 62
     9
 10
0.0
 20
0.0
 30
0.0
 70
   128
 71
    14
 72
    13
 73
    12
  0
VERTEX
  5
19C
  8
0
 62
     9
 10
0.0
 20
0.0
 30
0.0
 70
   128
 71
    13
 72
     8
 73
    12
  0
VERTEX
  5
19D
  8
0
 62
     9
 10
0.0
 20
0.0
 30
0.0
 70
   128
 71
    12
 72
    15
 73
    14
  0
VERTEX
  5
19E
  8
0
 62
     9
 10
0.0
 20
0.0
 30
0.0
 70
   128
 71
    17
 72
    16
 73
     1
  0
VERTEX
  5
19F
  8
0
 62
     9
 10
0.0
 20
0.0
 30
0.0
 70
   128
 71
    16
 72
    18
 73
     1
  0
VERTEX
  5
1A0
  8
0
 62
     9
 10
0.0
 20
0.0
 30
0.0
 70
   128
 71
    19
 72
    15
 73
     1
  0
VERTEX
  5
1A1
  8
0
 62
     9
 10
0.0
 20
0.0
 30
0.0
 70
   128
 71
     1
 72
    18
 73
    19
  0
VERTEX
  5
1A2
  8
0
 62
     9
 10
0.0
 20
0.0
 30
0.0
 70
   128
 71
     1
 72
     4
 73
    17
  0
VERTEX
  5
1A3
  8
0
 62
     9
 10
0.0
 20
0.0
 30
0.0
 70
   128
 71
    15
 72
    19
 73
    14
  0
VERTEX
  5
1A4
  8
0
 62
     9
 10
0.0
 20
0.0
 30
0.0
 70
   128
 71
     6
 72
    12
 73
     8
  0
VERTEX
  5
1A5
  8
0
 62
     9
 10
0.0
 20
0.0
 30
0.0
 70
   128
 71
     1
 72
     6
 73
     3
  0
SEQEND
  5
1A6
  8
0
 62
     9
  0
ENDBLK
  5
1A9
  8
0
  0
BLOCK
  8
0
  2
E3_NODE_10_
 70
     0
 10
0.0
 20
0.0
 30
0.0
  3
E3_NODE_10_
  1

  0
POLYLINE
  5
1AB
  8
0
 62
     9
 66
     1
 10
0.0
 20
0.0
 30
0.0
 70
    64
 71
     4
 72
     2
  0
VERTEX
  5
1AC
  8
0
 10
50.57600021362305
 20
80.62000274658203
 30
-18.75
 70
   192
  0
VERTEX
  5
1AD
  8
0
 10
53.57600021362305
 20
74.62000274658203
 30
-13.55399990081787
 70
   192
  0
VERTEX
  5
1AE
  8
0
 10
50.57600021362305
 20
68.62000274658203
 30
-18.75
 70
   192
  0
VERTEX
  5
1AF
  8
0
 10
47.57600021362305
 20
74.62000274658203
 30
-23.94599914550781
 70
   192
  0
VERTEX
  5
1B0
  8
0
 62
     9
 10
0.0
 20
0.0
 30
0.0
 70
   128
 71
     3
 72
     2
 73
     1
  0
VERTEX
  5
1B1
  8
0
 62
     9
 10
0.0
 20
0.0
 30
0.0
 70
   128
 71
     1
 72
     4
 73
     3
  0
SEQEND
  5
1B2
  8
0
 62
     9
  0
ENDBLK
  5
1B5
  8
0
  0
BLOCK
  8
0
  2
E3_NODE_11_
 70
     0
 10
0.0
 20
0.0
 30
0.0
  3
E3_NODE_11_
  1

  0
POLYLINE
  5
1B7
  8
0
 62
     9
 66
     1
 10
0.0
 20
0.0
 30
0.0
 70
    64
 71
    10
 72
    10
  0
VERTEX
  5
1B8
  8
0
 10
10.96700000762939
 20
58.91999816894531
 30
-2.318000078201294
 70
   192
  0
VERTEX
  5
1B9
  8
0
 10
10.96700000762939
 20
73.91999816894531
 30
-2.318000078201294
 70
   192
  0
VERTEX
  5
1BA
  8
0
 10
18.10000038146973
 20
73.91999816894531
 30
-7.5
 70
   192
  0
VERTEX
  5
1BB
  8
0
 10
13.69200038909912
 20
58.91999816894531
 30
6.067999839782715
 70
   192
  0
VERTEX
  5
1BC
  8
0
 10
22.50799942016602
 20
58.91999816894531
 30
6.067999839782715
 70
   192
  0
VERTEX
  5
1BD
  8
0
 10
22.50799942016602
 20
73.91999816894531
 30
6.067999839782715
 70
   192
  0
VERTEX
  5
1BE
  8
0
 10
13.69200038909912
 20
73.91999816894531
 30
6.067999839782715
 70
   192
  0
VERTEX
  5
1BF
  8
0
 10
25.23299980163574
 20
58.91999816894531
 30
-2.318000078201294
 70
   192
  0
VERTEX
  5
1C0
  8
0
 10
25.23299980163574
 20
73.91999816894531
 30
-2.318000078201294
 70
   192
  0
VERTEX
  5
1C1
  8
0
 10
18.10000038146973
 20
58.91999816894531
 30
-7.5
 70
   192
  0
VERTEX
  5
1C2
  8
0
 62
     9
 10
0.0
 20
0.0
 30
0.0
 70
   128
 71
     3
 72
     2
 73
     1
  0
VERTEX
  5
1C3
  8
0
 62
     9
 10
0.0
 20
0.0
 30
0.0
 70
   128
 71
     4
 72
     1
 73
     2
  0
VERTEX
  5
1C4
  8
0
 62
     9
 10
0.0
 20
0.0
 30
0.0
 70
   128
 71
     7
 72
     6
 73
     5
  0
VERTEX
  5
1C5
  8
0
 62
     9
 10
0.0
 20
0.0
 30
0.0
 70
   128
 71
     9
 72
     8
 73
     5
  0
VERTEX
  5
1C6
  8
0
 62
     9
 10
0.0
 20
0.0
 30
0.0
 70
   128
 71
     8
 72
     9
 73
     3
  0
VERTEX
  5
1C7
  8
0
 62
     9
 10
0.0
 20
0.0
 30
0.0
 70
   128
 71
     3
 72
    10
 73
     8
  0
VERTEX
  5
1C8
  8
0
 62
     9
 10
0.0
 20
0.0
 30
0.0
 70
   128
 71
     5
 72
     6
 73
     9
  0
VERTEX
  5
1C9
  8
0
 62
     9
 10
0.0
 20
0.0
 30
0.0
 70
   128
 71
     5
 72
     4
 73
     7
  0
VERTEX
  5
1CA
  8
0
 62
     9
 10
0.0
 20
0.0
 30
0.0
 70
   128
 71
     2
 72
     7
 73
     4
  0
VERTEX
  5
1CB
  8
0
 62
     9
 10
0.0
 20
0.0
 30
0.0
 70
   128
 71
     1
 72
    10
 73
     3
  0
SEQEND
  5
1CC
  8
0
 62
     9
  0
ENDBLK
  5
1CF
  8
0
  0
BLOCK
  8
0
  2
E3_NODE_12_
 70
     0
 10
0.0
 20
0.0
 30
0.0
  3
E3_NODE_12_
  1

  0
POLYLINE
  5
1D1
  8
0
 62
     9
 66
     1
 10
0.0
 20
0.0
 30
0.0
 70
    64
 71
    12
 72
    12
  0
VERTEX
  5
1D2
  8
0
 10
24.54299926757812
 20
58.91999816894531
 30
-13.37899971008301
 70
   192
  0
VERTEX
  5
1D3
  8
0
 10
18.10000038146973
 20
58.91999816894531
 30
-7.5
 70
   192
  0
VERTEX
  5
1D4
  8
0
 10
25.23299980163574
 20
58.91999816894531
 30
-2.318000078201294
 70
   192
  0
VERTEX
  5
1D5
  8
0
 10
11.6569995880127
 20
58.91999816894531
 30
-13.37899971008301
 70
   192
  0
VERTEX
  5
1D6
  8
0
 10
3.621999979019165
 20
58.91999816894531
 30
-3.303999900817871
 70
   192
  0
VERTEX
  5
1D7
  8
0
 10
10.96700000762939
 20
58.91999816894531
 30
-2.318000078201294
 70
   192
  0
VERTEX
  5
1D8
  8
0
 10
6.489999771118164
 20
58.91999816894531
 30
9.258999824523926
 70
   192
  0
VERTEX
  5
1D9
  8
0
 10
13.69200038909912
 20
58.91999816894531
 30
6.067999839782715
 70
   192
  0
VERTEX
  5
1DA
  8
0
 10
18.10000038146973
 20
58.91999816894531
 30
14.85000038146973
 70
   192
  0
VERTEX
  5
1DB
  8
0
 10
22.50799942016602
 20
58.91999816894531
 30
6.067999839782715
 70
   192
  0
VERTEX
  5
1DC
  8
0
 10
29.70999908447266
 20
58.91999816894531
 30
9.258999824523926
 70
   192
  0
VERTEX
  5
1DD
  8
0
 10
32.57799911499023
 20
58.91999816894531
 30
-3.303999900817871
 70
   192
  0
VERTEX
  5
1DE
  8
0
 62
     9
 10
0.0
 20
0.0
 30
0.0
 70
   128
 71
     3
 72
     2
 73
     1
  0
VERTEX
  5
1DF
  8
0
 62
     9
 10
0.0
 20
0.0
 30
0.0
 70
   128
 71
     6
 72
     5
 73
     4
  0
VERTEX
  5
1E0
  8
0
 62
     9
 10
0.0
 20
0.0
 30
0.0
 70
   128
 71
     6
 72
     8
 73
     7
  0
VERTEX
  5
1E1
  8
0
 62
     9
 10
0.0
 20
0.0
 30
0.0
 70
   128
 71
     8
 72
    10
 73
     9
  0
VERTEX
  5
1E2
  8
0
 62
     9
 10
0.0
 20
0.0
 30
0.0
 70
   128
 71
     3
 72
    12
 73
    11
  0
VERTEX
  5
1E3
  8
0
 62
     9
 10
0.0
 20
0.0
 30
0.0
 70
   128
 71
     2
 72
     4
 73
     1
  0
VERTEX
  5
1E4
  8
0
 62
     9
 10
0.0
 20
0.0
 30
0.0
 70
   128
 71
     7
 72
     5
 73
     6
  0
VERTEX
  5
1E5
  8
0
 62
     9
 10
0.0
 20
0.0
 30
0.0
 70
   128
 71
    10
 72
    11
 73
     9
  0
VERTEX
  5
1E6
  8
0
 62
     9
 10
0.0
 20
0.0
 30
0.0
 70
   128
 71
     1
 72
    12
 73
     3
  0
VERTEX
  5
1E7
  8
0
 62
     9
 10
0.0
 20
0.0
 30
0.0
 70
   128
 71
     9
 72
     7
 73
     8
  0
VERTEX
  5
1E8
  8
0
 62
     9
 10
0.0
 20
0.0
 30
0.0
 70
   128
 71
     4
 72
     2
 73
     6
  0
VERTEX
  5
1E9
  8
0
 62
     9
 10
0.0
 20
0.0
 30
0.0
 70
   128
 71
    11
 72
    10
 73
     3
  0
SEQEND
  5
1EA
  8
0
 62
     9
  0
ENDBLK
  5
1ED
  8
0
  0
BLOCK
  8
0
  2
E3_NODE_13_
 70
     0
 10
0.0
 20
0.0
 30
0.0
  3
E3_NODE_13_
  1

  0
POLYLINE
  5
1EF
  8
0
 62
     9
 66
     1
 10
0.0
 20
0.0
 30
0.0
 70
    64
 71
    15
 72
    15
  0
VERTEX
  5
1F0
  8
0
 10
6.489999771118164
 20
36.91999816894531
 30
9.258999824523926
 70
   192
  0
VERTEX
  5
1F1
  8
0
 10
18.10000038146973
 20
36.91999816894531
 30
14.85000038146973
 70
   192
  0
VERTEX
  5
1F2
  8
0
 10
18.10000038146973
 20
58.91999816894531
 30
14.85000038146973
 70
   192
  0
VERTEX
  5
1F3
  8
0
 10
3.621999979019165
 20
58.91999816894531
 30
-3.303999900817871
 70
   192
  0
VERTEX
  5
1F4
  8
0
 10
3.621999979019165
 20
36.91999816894531
 30
-3.303999900817871
 70
   192
  0
VERTEX
  5
1F5
  8
0
 10
11.6569995880127
 20
58.91999816894531
 30
-13.37899971008301
 70
   192
  0
VERTEX
  5
1F6
  8
0
 10
11.6569995880127
 20
36.91999816894531
 30
-13.37899971008301
 70
   192
  0
VERTEX
  5
1F7
  8
0
 10
24.54299926757812
 20
58.91999816894531
 30
-13.37899971008301
 70
   192
  0
VERTEX
  5
1F8
  8
0
 10
18.10000038146973
 20
36.91999816894531
 30
-14.85000038146973
 70
   192
  0
VERTEX
  5
1F9
  8
0
 10
24.54299926757812
 20
36.91999816894531
 30
-13.37899971008301
 70
   192
  0
VERTEX
  5
1FA
  8
0
 10
32.57799911499023
 20
58.91999816894531
 30
-3.303999900817871
 70
   192
  0
VERTEX
  5
1FB
  8
0
 10
32.57799911499023
 20
36.91999816894531
 30
-3.303999900817871
 70
   192
  0
VERTEX
  5
1FC
  8
0
 10
29.70999908447266
 20
36.91999816894531
 30
9.258999824523926
 70
   192
  0
VERTEX
  5
1FD
  8
0
 10
29.70999908447266
 20
58.91999816894531
 30
9.258999824523926
 70
   192
  0
VERTEX
  5
1FE
  8
0
 10
6.489999771118164
 20
58.91999816894531
 30
9.258999824523926
 70
   192
  0
VERTEX
  5
1FF
  8
0
 62
     9
 10
0.0
 20
0.0
 30
0.0
 70
   128
 71
     3
 72
     2
 73
     1
  0
VERTEX
  5
200
  8
0
 62
     9
 10
0.0
 20
0.0
 30
0.0
 70
   128
 71
     1
 72
     5
 73
     4
  0
VERTEX
  5
201
  8
0
 62
     9
 10
0.0
 20
0.0
 30
0.0
 70
   128
 71
     5
 72
     7
 73
     6
  0
VERTEX
  5
202
  8
0
 62
     9
 10
0.0
 20
0.0
 30
0.0
 70
   128
 71
     9
 72
     8
 73
     6
  0
VERTEX
  5
203
  8
0
 62
     9
 10
0.0
 20
0.0
 30
0.0
 70
   128
 71
     9
 72
    10
 73
     8
  0
VERTEX
  5
204
  8
0
 62
     9
 10
0.0
 20
0.0
 30
0.0
 70
   128
 71
    10
 72
    12
 73
    11
  0
VERTEX
  5
205
  8
0
 62
     9
 10
0.0
 20
0.0
 30
0.0
 70
   128
 71
    11
 72
    12
 73
    13
  0
VERTEX
  5
206
  8
0
 62
     9
 10
0.0
 20
0.0
 30
0.0
 70
   128
 71
    13
 72
     2
 73
     3
  0
VERTEX
  5
207
  8
0
 62
     9
 10
0.0
 20
0.0
 30
0.0
 70
   128
 71
     3
 72
    14
 73
    13
  0
VERTEX
  5
208
  8
0
 62
     9
 10
0.0
 20
0.0
 30
0.0
 70
   128
 71
    13
 72
    14
 73
    11
  0
VERTEX
  5
209
  8
0
 62
     9
 10
0.0
 20
0.0
 30
0.0
 70
   128
 71
    11
 72
     8
 73
    10
  0
VERTEX
  5
20A
  8
0
 62
     9
 10
0.0
 20
0.0
 30
0.0
 70
   128
 71
     6
 72
     7
 73
     9
  0
VERTEX
  5
20B
  8
0
 62
     9
 10
0.0
 20
0.0
 30
0.0
 70
   128
 71
     6
 72
     4
 73
     5
  0
VERTEX
  5
20C
  8
0
 62
     9
 10
0.0
 20
0.0
 30
0.0
 70
   128
 71
     4
 72
    15
 73
     1
  0
VERTEX
  5
20D
  8
0
 62
     9
 10
0.0
 20
0.0
 30
0.0
 70
   128
 71
     1
 72
    15
 73
     3
  0
SEQEND
  5
20E
  8
0
 62
     9
  0
ENDBLK
  5
211
  8
0
  0
BLOCK
  8
0
  2
E3_NODE_14_
 70
     0
 10
0.0
 20
0.0
 30
0.0
  3
E3_NODE_14_
  1

  0
POLYLINE
  5
213
  8
0
 62
     9
 66
     1
 10
0.0
 20
0.0
 30
0.0
 70
    64
 71
    17
 72
    17
  0
VERTEX
  5
214
  8
0
 10
-5.75
 20
-9.958999633789062
 30
36.5
 70
   192
  0
VERTEX
  5
215
  8
0
 10
-4.426000118255615
 20
-9.1899995803833
 30
36.5
 70
   192
  0
VERTEX
  5
216
  8
0
 10
-7.974999904632568
 20
-6.360000133514404
 30
36.5
 70
   192
  0
VERTEX
  5
217
  8
0
 10
0.0
 20
-11.5
 30
36.5
 70
   192
  0
VERTEX
  5
218
  8
0
 10
0.0
 20
-10.19999980926514
 30
36.5
 70
   192
  0
VERTEX
  5
219
  8
0
 10
5.75
 20
-9.958999633789062
 30
36.5
 70
   192
  0
VERTEX
  5
21A
  8
0
 10
4.426000118255615
 20
-9.1899995803833
 30
36.5
 70
   192
  0
VERTEX
  5
21B
  8
0
 10
-9.958999633789062
 20
-5.75
 30
36.5
 70
   192
  0
VERTEX
  5
21C
  8
0
 10
-9.958999633789062
 20
5.75
 30
36.5
 70
   192
  0
VERTEX
  5
21D
  8
0
 10
-9.944000244140625
 20
-2.269999980926514
 30
36.5
 70
   192
  0
VERTEX
  5
21E
  8
0
 10
9.958999633789062
 20
-5.75
 30
36.5
 70
   192
  0
VERTEX
  5
21F
  8
0
 10
9.958999633789062
 20
5.75
 30
36.5
 70
   192
  0
VERTEX
  5
220
  8
0
 10
9.944000244140625
 20
-2.269999980926514
 30
36.5
 70
   192
  0
VERTEX
  5
221
  8
0
 10
0.0
 20
11.5
 30
36.5
 70
   192
  0
VERTEX
  5
222
  8
0
 10
0.0
 20
10.19999980926514
 30
36.5
 70
   192
  0
VERTEX
  5
223
  8
0
 10
7.974999904632568
 20
6.360000133514404
 30
36.5
 70
   192
  0
VERTEX
  5
224
  8
0
 10
-7.974999904632568
 20
6.360000133514404
 30
36.5
 70
   192
  0
VERTEX
  5
225
  8
0
 62
     9
 10
0.0
 20
0.0
 30
0.0
 70
   128
 71
     3
 72
     2
 73
     1
  0
VERTEX
  5
226
  8
0
 62
     9
 10
0.0
 20
0.0
 30
0.0
 70
   128
 71
     2
 72
     5
 73
     4
  0
VERTEX
  5
227
  8
0
 62
     9
 10
0.0
 20
0.0
 30
0.0
 70
   128
 71
     7
 72
     6
 73
     4
  0
VERTEX
  5
228
  8
0
 62
     9
 10
0.0
 20
0.0
 30
0.0
 70
   128
 71
     1
 72
     8
 73
     3
  0
VERTEX
  5
229
  8
0
 62
     9
 10
0.0
 20
0.0
 30
0.0
 70
   128
 71
     4
 72
     5
 73
     7
  0
VERTEX
  5
22A
  8
0
 62
     9
 10
0.0
 20
0.0
 30
0.0
 70
   128
 71
    10
 72
     8
 73
     9
  0
VERTEX
  5
22B
  8
0
 62
     9
 10
0.0
 20
0.0
 30
0.0
 70
   128
 71
     4
 72
     1
 73
     2
  0
VERTEX
  5
22C
  8
0
 62
     9
 10
0.0
 20
0.0
 30
0.0
 70
   128
 71
    13
 72
    12
 73
    11
  0
VERTEX
  5
22D
  8
0
 62
     9
 10
0.0
 20
0.0
 30
0.0
 70
   128
 71
     8
 72
    10
 73
     3
  0
VERTEX
  5
22E
  8
0
 62
     9
 10
0.0
 20
0.0
 30
0.0
 70
   128
 71
    11
 72
     6
 73
    13
  0
VERTEX
  5
22F
  8
0
 62
     9
 10
0.0
 20
0.0
 30
0.0
 70
   128
 71
     6
 72
     7
 73
    13
  0
VERTEX
  5
230
  8
0
 62
     9
 10
0.0
 20
0.0
 30
0.0
 70
   128
 71
    16
 72
    15
 73
    14
  0
VERTEX
  5
231
  8
0
 62
     9
 10
0.0
 20
0.0
 30
0.0
 70
   128
 71
    17
 72
     9
 73
    14
  0
VERTEX
  5
232
  8
0
 62
     9
 10
0.0
 20
0.0
 30
0.0
 70
   128
 71
    14
 72
    12
 73
    16
  0
VERTEX
  5
233
  8
0
 62
     9
 10
0.0
 20
0.0
 30
0.0
 70
   128
 71
     9
 72
    17
 73
    10
  0
VERTEX
  5
234
  8
0
 62
     9
 10
0.0
 20
0.0
 30
0.0
 70
   128
 71
    14
 72
    15
 73
    17
  0
VERTEX
  5
235
  8
0
 62
     9
 10
0.0
 20
0.0
 30
0.0
 70
   128
 71
    12
 72
    13
 73
    16
  0
SEQEND
  5
236
  8
0
 62
     9
  0
ENDBLK
  5
239
  8
0
  0
BLOCK
  8
0
  2
E3_NODE_15_
 70
     0
 10
0.0
 20
0.0
 30
0.0
  3
E3_NODE_15_
  1

  0
POLYLINE
  5
23B
  8
0
 62
     9
 66
     1
 10
0.0
 20
0.0
 30
0.0
 70
    64
 71
    14
 72
    14
  0
VERTEX
  5
23C
  8
0
 10
-9.958999633789062
 20
5.75
 30
36.5
 70
   192
  0
VERTEX
  5
23D
  8
0
 10
0.0
 20
11.5
 30
36.5
 70
   192
  0
VERTEX
  5
23E
  8
0
 10
0.0
 20
11.5
 30
35.5
 70
   192
  0
VERTEX
  5
23F
  8
0
 10
-9.958999633789062
 20
-5.75
 30
35.5
 70
   192
  0
VERTEX
  5
240
  8
0
 10
-9.958999633789062
 20
-5.75
 30
36.5
 70
   192
  0
VERTEX
  5
241
  8
0
 10
0.0
 20
-11.5
 30
35.5
 70
   192
  0
VERTEX
  5
242
  8
0
 10
-5.75
 20
-9.958999633789062
 30
36.5
 70
   192
  0
VERTEX
  5
243
  8
0
 10
0.0
 20
-11.5
 30
36.5
 70
   192
  0
VERTEX
  5
244
  8
0
 10
9.958999633789062
 20
-5.75
 30
35.5
 70
   192
  0
VERTEX
  5
245
  8
0
 10
5.75
 20
-9.958999633789062
 30
36.5
 70
   192
  0
VERTEX
  5
246
  8
0
 10
9.958999633789062
 20
-5.75
 30
36.5
 70
   192
  0
VERTEX
  5
247
  8
0
 10
9.958999633789062
 20
5.75
 30
35.5
 70
   192
  0
VERTEX
  5
248
  8
0
 10
9.958999633789062
 20
5.75
 30
36.5
 70
   192
  0
VERTEX
  5
249
  8
0
 10
-9.958999633789062
 20
5.75
 30
35.5
 70
   192
  0
VERTEX
  5
24A
  8
0
 62
     9
 10
0.0
 20
0.0
 30
0.0
 70
   128
 71
     3
 72
     2
 73
     1
  0
VERTEX
  5
24B
  8
0
 62
     9
 10
0.0
 20
0.0
 30
0.0
 70
   128
 71
     1
 72
     5
 73
     4
  0
VERTEX
  5
24C
  8
0
 62
     9
 10
0.0
 20
0.0
 30
0.0
 70
   128
 71
     7
 72
     6
 73
     4
  0
VERTEX
  5
24D
  8
0
 62
     9
 10
0.0
 20
0.0
 30
0.0
 70
   128
 71
     7
 72
     8
 73
     6
  0
VERTEX
  5
24E
  8
0
 62
     9
 10
0.0
 20
0.0
 30
0.0
 70
   128
 71
    10
 72
     9
 73
     6
  0
VERTEX
  5
24F
  8
0
 62
     9
 10
0.0
 20
0.0
 30
0.0
 70
   128
 71
    10
 72
    11
 73
     9
  0
VERTEX
  5
250
  8
0
 62
     9
 10
0.0
 20
0.0
 30
0.0
 70
   128
 71
    11
 72
    13
 73
    12
  0
VERTEX
  5
251
  8
0
 62
     9
 10
0.0
 20
0.0
 30
0.0
 70
   128
 71
     2
 72
     3
 73
    12
  0
VERTEX
  5
252
  8
0
 62
     9
 10
0.0
 20
0.0
 30
0.0
 70
   128
 71
    12
 72
    13
 73
     2
  0
VERTEX
  5
253
  8
0
 62
     9
 10
0.0
 20
0.0
 30
0.0
 70
   128
 71
    12
 72
     9
 73
    11
  0
VERTEX
  5
254
  8
0
 62
     9
 10
0.0
 20
0.0
 30
0.0
 70
   128
 71
     6
 72
     8
 73
    10
  0
VERTEX
  5
255
  8
0
 62
     9
 10
0.0
 20
0.0
 30
0.0
 70
   128
 71
     4
 72
     5
 73
     7
  0
VERTEX
  5
256
  8
0
 62
     9
 10
0.0
 20
0.0
 30
0.0
 70
   128
 71
     4
 72
    14
 73
     1
  0
VERTEX
  5
257
  8
0
 62
     9
 10
0.0
 20
0.0
 30
0.0
 70
   128
 71
     1
 72
    14
 73
     3
  0
SEQEND
  5
258
  8
0
 62
     9
  0
ENDBLK
  5
25B
  8
0
  0
BLOCK
  8
0
  2
E3_NODE_16_
 70
     0
 10
0.0
 20
0.0
 30
0.0
  3
E3_NODE_16_
  1

  0
POLYLINE
  5
25D
  8
0
 62
     9
 66
     1
 10
0.0
 20
0.0
 30
0.0
 70
    64
 71
    13
 72
    13
  0
VERTEX
  5
25E
  8
0
 10
-11.72700023651123
 20
9.35200023651123
 30
35.5
 70
   192
  0
VERTEX
  5
25F
  8
0
 10
-9.958999633789062
 20
5.75
 30
35.5
 70
   192
  0
VERTEX
  5
260
  8
0
 10
0.0
 20
11.5
 30
35.5
 70
   192
  0
VERTEX
  5
261
  8
0
 10
-14.62399959564209
 20
-3.338000059127808
 30
35.5
 70
   192
  0
VERTEX
  5
262
  8
0
 10
-9.958999633789062
 20
-5.75
 30
35.5
 70
   192
  0
VERTEX
  5
263
  8
0
 10
6.507999897003174
 20
-13.51500034332275
 30
35.5
 70
   192
  0
VERTEX
  5
264
  8
0
 10
14.62399959564209
 20
-3.338000059127808
 30
35.5
 70
   192
  0
VERTEX
  5
265
  8
0
 10
9.958999633789062
 20
-5.75
 30
35.5
 70
   192
  0
VERTEX
  5
266
  8
0
 10
-6.507999897003174
 20
-13.51500034332275
 30
35.5
 70
   192
  0
VERTEX
  5
267
  8
0
 10
0.0
 20
-11.5
 30
35.5
 70
   192
  0
VERTEX
  5
268
  8
0
 10
11.72700023651123
 20
9.35200023651123
 30
35.5
 70
   192
  0
VERTEX
  5
269
  8
0
 10
9.958999633789062
 20
5.75
 30
35.5
 70
   192
  0
VERTEX
  5
26A
  8
0
 10
0.0
 20
15.0
 30
35.5
 70
   192
  0
VERTEX
  5
26B
  8
0
 62
     9
 10
0.0
 20
0.0
 30
0.0
 70
   128
 71
     3
 72
     2
 73
     1
  0
VERTEX
  5
26C
  8
0
 62
     9
 10
0.0
 20
0.0
 30
0.0
 70
   128
 71
     2
 72
     5
 73
     4
  0
VERTEX
  5
26D
  8
0
 62
     9
 10
0.0
 20
0.0
 30
0.0
 70
   128
 71
     8
 72
     7
 73
     6
  0
VERTEX
  5
26E
  8
0
 62
     9
 10
0.0
 20
0.0
 30
0.0
 70
   128
 71
     4
 72
     1
 73
     2
  0
VERTEX
  5
26F
  8
0
 62
     9
 10
0.0
 20
0.0
 30
0.0
 70
   128
 71
     5
 72
    10
 73
     9
  0
VERTEX
  5
270
  8
0
 62
     9
 10
0.0
 20
0.0
 30
0.0
 70
   128
 71
     6
 72
    10
 73
     8
  0
VERTEX
  5
271
  8
0
 62
     9
 10
0.0
 20
0.0
 30
0.0
 70
   128
 71
    12
 72
    11
 73
     7
  0
VERTEX
  5
272
  8
0
 62
     9
 10
0.0
 20
0.0
 30
0.0
 70
   128
 71
     9
 72
     4
 73
     5
  0
VERTEX
  5
273
  8
0
 62
     9
 10
0.0
 20
0.0
 30
0.0
 70
   128
 71
     7
 72
     8
 73
    12
  0
VERTEX
  5
274
  8
0
 62
     9
 10
0.0
 20
0.0
 30
0.0
 70
   128
 71
     3
 72
    13
 73
    11
  0
VERTEX
  5
275
  8
0
 62
     9
 10
0.0
 20
0.0
 30
0.0
 70
   128
 71
     6
 72
     9
 73
    10
  0
VERTEX
  5
276
  8
0
 62
     9
 10
0.0
 20
0.0
 30
0.0
 70
   128
 71
     1
 72
    13
 73
     3
  0
VERTEX
  5
277
  8
0
 62
     9
 10
0.0
 20
0.0
 30
0.0
 70
   128
 71
    11
 72
    12
 73
     3
  0
SEQEND
  5
278
  8
0
 62
     9
  0
ENDBLK
  5
27B
  8
0
  0
BLOCK
  8
0
  2
E3_NODE_17_
 70
     0
 10
0.0
 20
0.0
 30
0.0
  3
E3_NODE_17_
  1

  0
POLYLINE
  5
27D
  8
0
 62
     9
 66
     1
 10
0.0
 20
0.0
 30
0.0
 70
    64
 71
    14
 72
    14
  0
VERTEX
  5
27E
  8
0
 10
-11.72700023651123
 20
9.35200023651123
 30
35.5
 70
   192
  0
VERTEX
  5
27F
  8
0
 10
0.0
 20
15.0
 30
35.5
 70
   192
  0
VERTEX
  5
280
  8
0
 10
0.0
 20
15.0
 30
28.5
 70
   192
  0
VERTEX
  5
281
  8
0
 10
-14.62399959564209
 20
-3.338000059127808
 30
28.5
 70
   192
  0
VERTEX
  5
282
  8
0
 10
-14.62399959564209
 20
-3.338000059127808
 30
35.5
 70
   192
  0
VERTEX
  5
283
  8
0
 10
-6.507999897003174
 20
-13.51500034332275
 30
28.5
 70
   192
  0
VERTEX
  5
284
  8
0
 10
6.507999897003174
 20
-13.51500034332275
 30
28.5
 70
   192
  0
VERTEX
  5
285
  8
0
 10
6.507999897003174
 20
-13.51500034332275
 30
35.5
 70
   192
  0
VERTEX
  5
286
  8
0
 10
-6.507999897003174
 20
-13.51500034332275
 30
35.5
 70
   192
  0
VERTEX
  5
287
  8
0
 10
14.62399959564209
 20
-3.338000059127808
 30
28.5
 70
   192
  0
VERTEX
  5
288
  8
0
 10
14.62399959564209
 20
-3.338000059127808
 30
35.5
 70
   192
  0
VERTEX
  5
289
  8
0
 10
11.72700023651123
 20
9.35200023651123
 30
28.5
 70
   192
  0
VERTEX
  5
28A
  8
0
 10
11.72700023651123
 20
9.35200023651123
 30
35.5
 70
   192
  0
VERTEX
  5
28B
  8
0
 10
-11.72700023651123
 20
9.35200023651123
 30
28.5
 70
   192
  0
VERTEX
  5
28C
  8
0
 62
     9
 10
0.0
 20
0.0
 30
0.0
 70
   128
 71
     3
 72
     2
 73
     1
  0
VERTEX
  5
28D
  8
0
 62
     9
 10
0.0
 20
0.0
 30
0.0
 70
   128
 71
     1
 72
     5
 73
     4
  0
VERTEX
  5
28E
  8
0
 62
     9
 10
0.0
 20
0.0
 30
0.0
 70
   128
 71
     6
 72
     4
 73
     5
  0
VERTEX
  5
28F
  8
0
 62
     9
 10
0.0
 20
0.0
 30
0.0
 70
   128
 71
     9
 72
     8
 73
     7
  0
VERTEX
  5
290
  8
0
 62
     9
 10
0.0
 20
0.0
 30
0.0
 70
   128
 71
     8
 72
    11
 73
    10
  0
VERTEX
  5
291
  8
0
 62
     9
 10
0.0
 20
0.0
 30
0.0
 70
   128
 71
    13
 72
    12
 73
    10
  0
VERTEX
  5
292
  8
0
 62
     9
 10
0.0
 20
0.0
 30
0.0
 70
   128
 71
    13
 72
     2
 73
     3
  0
VERTEX
  5
293
  8
0
 62
     9
 10
0.0
 20
0.0
 30
0.0
 70
   128
 71
     3
 72
    12
 73
    13
  0
VERTEX
  5
294
  8
0
 62
     9
 10
0.0
 20
0.0
 30
0.0
 70
   128
 71
    10
 72
    11
 73
    13
  0
VERTEX
  5
295
  8
0
 62
     9
 10
0.0
 20
0.0
 30
0.0
 70
   128
 71
    10
 72
     7
 73
     8
  0
VERTEX
  5
296
  8
0
 62
     9
 10
0.0
 20
0.0
 30
0.0
 70
   128
 71
     7
 72
     6
 73
     9
  0
VERTEX
  5
297
  8
0
 62
     9
 10
0.0
 20
0.0
 30
0.0
 70
   128
 71
     5
 72
     9
 73
     6
  0
VERTEX
  5
298
  8
0
 62
     9
 10
0.0
 20
0.0
 30
0.0
 70
   128
 71
     4
 72
    14
 73
     1
  0
VERTEX
  5
299
  8
0
 62
     9
 10
0.0
 20
0.0
 30
0.0
 70
   128
 71
     1
 72
    14
 73
     3
  0
SEQEND
  5
29A
  8
0
 62
     9
  0
ENDBLK
  5
29D
  8
0
  0
BLOCK
  8
0
  2
E3_NODE_18_
 70
     0
 10
0.0
 20
0.0
 30
0.0
  3
E3_NODE_18_
  1

  0
POLYLINE
  5
29F
  8
0
 62
     9
 66
     1
 10
0.0
 20
0.0
 30
0.0
 70
    64
 71
     8
 72
     6
  0
VERTEX
  5
2A0
  8
0
 10
32.17300033569336
 20
-55.0
 30
11.22299957275391
 70
   192
  0
VERTEX
  5
2A1
  8
0
 10
18.10000038146973
 20
-55.0
 30
18.0
 70
   192
  0
VERTEX
  5
2A2
  8
0
 10
4.026999950408936
 20
-55.0
 30
11.22299957275391
 70
   192
  0
VERTEX
  5
2A3
  8
0
 10
0.5509999990463257
 20
-55.0
 30
-4.005000114440918
 70
   192
  0
VERTEX
  5
2A4
  8
0
 10
10.28999996185303
 20
-55.0
 30
-16.21699905395508
 70
   192
  0
VERTEX
  5
2A5
  8
0
 10
25.90999984741211
 20
-55.0
 30
-16.21699905395508
 70
   192
  0
VERTEX
  5
2A6
  8
0
 10
36.09999847412109
 20
-55.0
 30
0.0
 70
   192
  0
VERTEX
  5
2A7
  8
0
 10
35.64899826049805
 20
-55.0
 30
-4.005000114440918
 70
   192
  0
VERTEX
  5
2A8
  8
0
 62
     9
 10
0.0
 20
0.0
 30
0.0
 70
   128
 71
     3
 72
     2
 73
     1
  0
VERTEX
  5
2A9
  8
0
 62
     9
 10
0.0
 20
0.0
 30
0.0
 70
   128
 71
     6
 72
     5
 73
     4
  0
VERTEX
  5
2AA
  8
0
 62
     9
 10
0.0
 20
0.0
 30
0.0
 70
   128
 71
     1
 72
     7
 73
     4
  0
VERTEX
  5
2AB
  8
0
 62
     9
 10
0.0
 20
0.0
 30
0.0
 70
   128
 71
     4
 72
     8
 73
     6
  0
VERTEX
  5
2AC
  8
0
 62
     9
 10
0.0
 20
0.0
 30
0.0
 70
   128
 71
     4
 72
     7
 73
     8
  0
VERTEX
  5
2AD
  8
0
 62
     9
 10
0.0
 20
0.0
 30
0.0
 70
   128
 71
     1
 72
     4
 73
     3
  0
SEQEND
  5
2AE
  8
0
 62
     9
  0
ENDBLK
  5
2B1
  8
0
  0
BLOCK
  8
0
  2
E3_NODE_19_
 70
     0
 10
0.0
 20
0.0
 30
0.0
  3
E3_NODE_19_
  1

  0
POLYLINE
  5
2B3
  8
0
 62
     9
 66
     1
 10
0.0
 20
0.0
 30
0.0
 70
    64
 71
    16
 72
    16
  0
VERTEX
  5
2B4
  8
0
 10
32.17300033569336
 20
-55.0
 30
11.22299957275391
 70
   192
  0
VERTEX
  5
2B5
  8
0
 10
32.17300033569336
 20
55.0
 30
11.22299957275391
 70
   192
  0
VERTEX
  5
2B6
  8
0
 10
18.10000038146973
 20
55.0
 30
18.0
 70
   192
  0
VERTEX
  5
2B7
  8
0
 10
35.64899826049805
 20
55.0
 30
-4.005000114440918
 70
   192
  0
VERTEX
  5
2B8
  8
0
 10
36.09999847412109
 20
55.0
 30
0.0
 70
   192
  0
VERTEX
  5
2B9
  8
0
 10
36.09999847412109
 20
-55.0
 30
0.0
 70
   192
  0
VERTEX
  5
2BA
  8
0
 10
25.90999984741211
 20
-55.0
 30
-16.21699905395508
 70
   192
  0
VERTEX
  5
2BB
  8
0
 10
25.90999984741211
 20
55.0
 30
-16.21699905395508
 70
   192
  0
VERTEX
  5
2BC
  8
0
 10
10.28999996185303
 20
-55.0
 30
-16.21699905395508
 70
   192
  0
VERTEX
  5
2BD
  8
0
 10
10.28999996185303
 20
55.0
 30
-16.21699905395508
 70
   192
  0
VERTEX
  5
2BE
  8
0
 10
0.5509999990463257
 20
-55.0
 30
-4.005000114440918
 70
   192
  0
VERTEX
  5
2BF
  8
0
 10
0.5509999990463257
 20
55.0
 30
-4.005000114440918
 70
   192
  0
VERTEX
  5
2C0
  8
0
 10
4.026999950408936
 20
-55.0
 30
11.22299957275391
 70
   192
  0
VERTEX
  5
2C1
  8
0
 10
4.026999950408936
 20
55.0
 30
11.22299957275391
 70
   192
  0
VERTEX
  5
2C2
  8
0
 10
18.10000038146973
 20
-55.0
 30
18.0
 70
   192
  0
VERTEX
  5
2C3
  8
0
 10
35.64899826049805
 20
-55.0
 30
-4.005000114440918
 70
   192
  0
VERTEX
  5
2C4
  8
0
 62
     9
 10
0.0
 20
0.0
 30
0.0
 70
   128
 71
     3
 72
     2
 73
     1
  0
VERTEX
  5
2C5
  8
0
 62
     9
 10
0.0
 20
0.0
 30
0.0
 70
   128
 71
     6
 72
     5
 73
     4
  0
VERTEX
  5
2C6
  8
0
 62
     9
 10
0.0
 20
0.0
 30
0.0
 70
   128
 71
     5
 72
     6
 73
     1
  0
VERTEX
  5
2C7
  8
0
 62
     9
 10
0.0
 20
0.0
 30
0.0
 70
   128
 71
     1
 72
     2
 73
     5
  0
VERTEX
  5
2C8
  8
0
 62
     9
 10
0.0
 20
0.0
 30
0.0
 70
   128
 71
     4
 72
     8
 73
     7
  0
VERTEX
  5
2C9
  8
0
 62
     9
 10
0.0
 20
0.0
 30
0.0
 70
   128
 71
     8
 72
    10
 73
     9
  0
VERTEX
  5
2CA
  8
0
 62
     9
 10
0.0
 20
0.0
 30
0.0
 70
   128
 71
    10
 72
    12
 73
    11
  0
VERTEX
  5
2CB
  8
0
 62
     9
 10
0.0
 20
0.0
 30
0.0
 70
   128
 71
    12
 72
    14
 73
    13
  0
VERTEX
  5
2CC
  8
0
 62
     9
 10
0.0
 20
0.0
 30
0.0
 70
   128
 71
    14
 72
     3
 73
    15
  0
VERTEX
  5
2CD
  8
0
 62
     9
 10
0.0
 20
0.0
 30
0.0
 70
   128
 71
    15
 72
    13
 73
    14
  0
VERTEX
  5
2CE
  8
0
 62
     9
 10
0.0
 20
0.0
 30
0.0
 70
   128
 71
    13
 72
    11
 73
    12
  0
VERTEX
  5
2CF
  8
0
 62
     9
 10
0.0
 20
0.0
 30
0.0
 70
   128
 71
    11
 72
     9
 73
    10
  0
VERTEX
  5
2D0
  8
0
 62
     9
 10
0.0
 20
0.0
 30
0.0
 70
   128
 71
     9
 72
     7
 73
     8
  0
VERTEX
  5
2D1
  8
0
 62
     9
 10
0.0
 20
0.0
 30
0.0
 70
   128
 71
     7
 72
    16
 73
     4
  0
VERTEX
  5
2D2
  8
0
 62
     9
 10
0.0
 20
0.0
 30
0.0
 70
   128
 71
     4
 72
    16
 73
     6
  0
VERTEX
  5
2D3
  8
0
 62
     9
 10
0.0
 20
0.0
 30
0.0
 70
   128
 71
     1
 72
    15
 73
     3
  0
SEQEND
  5
2D4
  8
0
 62
     9
  0
ENDBLK
  5
2D7
  8
0
  0
BLOCK
  8
0
  2
E3_NODE_20_
 70
     0
 10
0.0
 20
0.0
 30
0.0
  3
E3_NODE_20_
  1

  0
POLYLINE
  5
2D9
  8
0
 62
     9
 66
     1
 10
0.0
 20
0.0
 30
0.0
 70
    64
 71
     8
 72
     6
  0
VERTEX
  5
2DA
  8
0
 10
0.5509999990463257
 20
55.0
 30
-4.005000114440918
 70
   192
  0
VERTEX
  5
2DB
  8
0
 10
35.64899826049805
 20
55.0
 30
-4.005000114440918
 70
   192
  0
VERTEX
  5
2DC
  8
0
 10
25.90999984741211
 20
55.0
 30
-16.21699905395508
 70
   192
  0
VERTEX
  5
2DD
  8
0
 10
32.17300033569336
 20
55.0
 30
11.22299957275391
 70
   192
  0
VERTEX
  5
2DE
  8
0
 10
4.026999950408936
 20
55.0
 30
11.22299957275391
 70
   192
  0
VERTEX
  5
2DF
  8
0
 10
36.09999847412109
 20
55.0
 30
0.0
 70
   192
  0
VERTEX
  5
2E0
  8
0
 10
18.10000038146973
 20
55.0
 30
18.0
 70
   192
  0
VERTEX
  5
2E1
  8
0
 10
10.28999996185303
 20
55.0
 30
-16.21699905395508
 70
   192
  0
VERTEX
  5
2E2
  8
0
 62
     9
 10
0.0
 20
0.0
 30
0.0
 70
   128
 71
     3
 72
     2
 73
     1
  0
VERTEX
  5
2E3
  8
0
 62
     9
 10
0.0
 20
0.0
 30
0.0
 70
   128
 71
     5
 72
     1
 73
     4
  0
VERTEX
  5
2E4
  8
0
 62
     9
 10
0.0
 20
0.0
 30
0.0
 70
   128
 71
     2
 72
     6
 73
     1
  0
VERTEX
  5
2E5
  8
0
 62
     9
 10
0.0
 20
0.0
 30
0.0
 70
   128
 71
     4
 72
     7
 73
     5
  0
VERTEX
  5
2E6
  8
0
 62
     9
 10
0.0
 20
0.0
 30
0.0
 70
   128
 71
     1
 72
     6
 73
     4
  0
VERTEX
  5
2E7
  8
0
 62
     9
 10
0.0
 20
0.0
 30
0.0
 70
   128
 71
     1
 72
     8
 73
     3
  0
SEQEND
  5
2E8
  8
0
 62
     9
  0
ENDBLK
  5
2EB
  8
0
  0
BLOCK
  8
0
  2
E3_NODE_21_
 70
     0
 10
0.0
 20
0.0
 30
0.0
  3
E3_NODE_21_
  1

  0
POLYLINE
  5
2ED
  8
0
 62
     9
 66
     1
 10
0.0
 20
0.0
 30
0.0
 70
    64
 71
    10
 72
    10
  0
VERTEX
  5
2EE
  8
0
 10
12.52600002288818
 20
-58.91999816894531
 30
-5.01800012588501
 70
   192
  0
VERTEX
  5
2EF
  8
0
 10
12.52600002288818
 20
-73.91999816894531
 30
-5.01800012588501
 70
   192
  0
VERTEX
  5
2F0
  8
0
 10
11.60499954223633
 20
-73.91999816894531
 30
3.75
 70
   192
  0
VERTEX
  5
2F1
  8
0
 10
21.15099906921387
 20
-73.91999816894531
 30
-6.85200023651123
 70
   192
  0
VERTEX
  5
2F2
  8
0
 10
25.55900001525879
 20
-58.91999816894531
 30
0.7839999794960022
 70
   192
  0
VERTEX
  5
2F3
  8
0
 10
25.55900001525879
 20
-73.91999816894531
 30
0.7839999794960022
 70
   192
  0
VERTEX
  5
2F4
  8
0
 10
19.65900039672852
 20
-58.91999816894531
 30
7.335999965667725
 70
   192
  0
VERTEX
  5
2F5
  8
0
 10
19.65900039672852
 20
-73.91999816894531
 30
7.335999965667725
 70
   192
  0
VERTEX
  5
2F6
  8
0
 10
11.60499954223633
 20
-58.91999816894531
 30
3.75
 70
   192
  0
VERTEX
  5
2F7
  8
0
 10
21.15099906921387
 20
-58.91999816894531
 30
-6.85200023651123
 70
   192
  0
VERTEX
  5
2F8
  8
0
 62
     9
 10
0.0
 20
0.0
 30
0.0
 70
   128
 71
     3
 72
     2
 73
     1
  0
VERTEX
  5
2F9
  8
0
 62
     9
 10
0.0
 20
0.0
 30
0.0
 70
   128
 71
     1
 72
     2
 73
     4
  0
VERTEX
  5
2FA
  8
0
 62
     9
 10
0.0
 20
0.0
 30
0.0
 70
   128
 71
     4
 72
     6
 73
     5
  0
VERTEX
  5
2FB
  8
0
 62
     9
 10
0.0
 20
0.0
 30
0.0
 70
   128
 71
     8
 72
     7
 73
     5
  0
VERTEX
  5
2FC
  8
0
 62
     9
 10
0.0
 20
0.0
 30
0.0
 70
   128
 71
     8
 72
     3
 73
     9
  0
VERTEX
  5
2FD
  8
0
 62
     9
 10
0.0
 20
0.0
 30
0.0
 70
   128
 71
     9
 72
     7
 73
     8
  0
VERTEX
  5
2FE
  8
0
 62
     9
 10
0.0
 20
0.0
 30
0.0
 70
   128
 71
     5
 72
     6
 73
     8
  0
VERTEX
  5
2FF
  8
0
 62
     9
 10
0.0
 20
0.0
 30
0.0
 70
   128
 71
     5
 72
    10
 73
     4
  0
VERTEX
  5
300
  8
0
 62
     9
 10
0.0
 20
0.0
 30
0.0
 70
   128
 71
     4
 72
    10
 73
     1
  0
VERTEX
  5
301
  8
0
 62
     9
 10
0.0
 20
0.0
 30
0.0
 70
   128
 71
     1
 72
     9
 73
     3
  0
SEQEND
  5
302
  8
0
 62
     9
  0
ENDBLK
  5
305
  8
0
  0
BLOCK
  8
0
  2
E3_NODE_22_
 70
     0
 10
0.0
 20
0.0
 30
0.0
  3
E3_NODE_22_
  1

  0
POLYLINE
  5
307
  8
0
 62
     9
 66
     1
 10
0.0
 20
0.0
 30
0.0
 70
    64
 71
    12
 72
    12
  0
VERTEX
  5
308
  8
0
 10
9.734999656677246
 20
-58.91999816894531
 30
12.27000045776367
 70
   192
  0
VERTEX
  5
309
  8
0
 10
11.60499954223633
 20
-58.91999816894531
 30
3.75
 70
   192
  0
VERTEX
  5
30A
  8
0
 10
19.65900039672852
 20
-58.91999816894531
 30
7.335999965667725
 70
   192
  0
VERTEX
  5
30B
  8
0
 10
3.29200005531311
 20
-58.91999816894531
 30
1.110000014305115
 70
   192
  0
VERTEX
  5
30C
  8
0
 10
7.999000072479248
 20
-58.91999816894531
 30
-10.88599967956543
 70
   192
  0
VERTEX
  5
30D
  8
0
 10
12.52600002288818
 20
-58.91999816894531
 30
-5.01800012588501
 70
   192
  0
VERTEX
  5
30E
  8
0
 10
20.3129997253418
 20
-58.91999816894531
 30
-14.68400001525879
 70
   192
  0
VERTEX
  5
30F
  8
0
 10
21.15099906921387
 20
-58.91999816894531
 30
-6.85200023651123
 70
   192
  0
VERTEX
  5
310
  8
0
 10
30.95999908447266
 20
-58.91999816894531
 30
-7.425000190734863
 70
   192
  0
VERTEX
  5
311
  8
0
 10
25.55900001525879
 20
-58.91999816894531
 30
0.7839999794960022
 70
   192
  0
VERTEX
  5
312
  8
0
 10
31.92300033569336
 20
-58.91999816894531
 30
5.425000190734863
 70
   192
  0
VERTEX
  5
313
  8
0
 10
22.47699928283691
 20
-58.91999816894531
 30
14.1899995803833
 70
   192
  0
VERTEX
  5
314
  8
0
 62
     9
 10
0.0
 20
0.0
 30
0.0
 70
   128
 71
     3
 72
     2
 73
     1
  0
VERTEX
  5
315
  8
0
 62
     9
 10
0.0
 20
0.0
 30
0.0
 70
   128
 71
     2
 72
     4
 73
     1
  0
VERTEX
  5
316
  8
0
 62
     9
 10
0.0
 20
0.0
 30
0.0
 70
   128
 71
     6
 72
     5
 73
     4
  0
VERTEX
  5
317
  8
0
 62
     9
 10
0.0
 20
0.0
 30
0.0
 70
   128
 71
     4
 72
     2
 73
     6
  0
VERTEX
  5
318
  8
0
 62
     9
 10
0.0
 20
0.0
 30
0.0
 70
   128
 71
     6
 72
     8
 73
     7
  0
VERTEX
  5
319
  8
0
 62
     9
 10
0.0
 20
0.0
 30
0.0
 70
   128
 71
     8
 72
    10
 73
     9
  0
VERTEX
  5
31A
  8
0
 62
     9
 10
0.0
 20
0.0
 30
0.0
 70
   128
 71
     7
 72
     5
 73
     6
  0
VERTEX
  5
31B
  8
0
 62
     9
 10
0.0
 20
0.0
 30
0.0
 70
   128
 71
    10
 72
    11
 73
     9
  0
VERTEX
  5
31C
  8
0
 62
     9
 10
0.0
 20
0.0
 30
0.0
 70
   128
 71
     3
 72
    12
 73
    11
  0
VERTEX
  5
31D
  8
0
 62
     9
 10
0.0
 20
0.0
 30
0.0
 70
   128
 71
     9
 72
     7
 73
     8
  0
VERTEX
  5
31E
  8
0
 62
     9
 10
0.0
 20
0.0
 30
0.0
 70
   128
 71
     1
 72
    12
 73
     3
  0
VERTEX
  5
31F
  8
0
 62
     9
 10
0.0
 20
0.0
 30
0.0
 70
   128
 71
    11
 72
    10
 73
     3
  0
SEQEND
  5
320
  8
0
 62
     9
  0
ENDBLK
  5
323
  8
0
  0
BLOCK
  8
0
  2
E3_NODE_23_
 70
     0
 10
0.0
 20
0.0
 30
0.0
  3
E3_NODE_23_
  1

  0
POLYLINE
  5
325
  8
0
 62
     9
 66
     1
 10
0.0
 20
0.0
 30
0.0
 70
    64
 71
    15
 72
    15
  0
VERTEX
  5
326
  8
0
 10
20.3129997253418
 20
-36.91999816894531
 30
-14.68400001525879
 70
   192
  0
VERTEX
  5
327
  8
0
 10
30.95999908447266
 20
-36.91999816894531
 30
-7.425000190734863
 70
   192
  0
VERTEX
  5
328
  8
0
 10
30.95999908447266
 20
-58.91999816894531
 30
-7.425000190734863
 70
   192
  0
VERTEX
  5
329
  8
0
 10
7.999000072479248
 20
-36.91999816894531
 30
-10.88599967956543
 70
   192
  0
VERTEX
  5
32A
  8
0
 10
20.3129997253418
 20
-58.91999816894531
 30
-14.68400001525879
 70
   192
  0
VERTEX
  5
32B
  8
0
 10
3.29200005531311
 20
-58.91999816894531
 30
1.110000014305115
 70
   192
  0
VERTEX
  5
32C
  8
0
 10
3.29200005531311
 20
-36.91999816894531
 30
1.110000014305115
 70
   192
  0
VERTEX
  5
32D
  8
0
 10
9.734999656677246
 20
-58.91999816894531
 30
12.27000045776367
 70
   192
  0
VERTEX
  5
32E
  8
0
 10
5.239999771118164
 20
-36.91999816894531
 30
7.425000190734863
 70
   192
  0
VERTEX
  5
32F
  8
0
 10
9.734999656677246
 20
-36.91999816894531
 30
12.27000045776367
 70
   192
  0
VERTEX
  5
330
  8
0
 10
22.47699928283691
 20
-58.91999816894531
 30
14.1899995803833
 70
   192
  0
VERTEX
  5
331
  8
0
 10
22.47699928283691
 20
-36.91999816894531
 30
14.1899995803833
 70
   192
  0
VERTEX
  5
332
  8
0
 10
31.92300033569336
 20
-36.91999816894531
 30
5.425000190734863
 70
   192
  0
VERTEX
  5
333
  8
0
 10
31.92300033569336
 20
-58.91999816894531
 30
5.425000190734863
 70
   192
  0
VERTEX
  5
334
  8
0
 10
7.999000072479248
 20
-58.91999816894531
 30
-10.88599967956543
 70
   192
  0
VERTEX
  5
335
  8
0
 62
     9
 10
0.0
 20
0.0
 30
0.0
 70
   128
 71
     3
 72
     2
 73
     1
  0
VERTEX
  5
336
  8
0
 62
     9
 10
0.0
 20
0.0
 30
0.0
 70
   128
 71
     5
 72
     1
 73
     4
  0
VERTEX
  5
337
  8
0
 62
     9
 10
0.0
 20
0.0
 30
0.0
 70
   128
 71
     4
 72
     7
 73
     6
  0
VERTEX
  5
338
  8
0
 62
     9
 10
0.0
 20
0.0
 30
0.0
 70
   128
 71
     9
 72
     8
 73
     6
  0
VERTEX
  5
339
  8
0
 62
     9
 10
0.0
 20
0.0
 30
0.0
 70
   128
 71
     9
 72
    10
 73
     8
  0
VERTEX
  5
33A
  8
0
 62
     9
 10
0.0
 20
0.0
 30
0.0
 70
   128
 71
    10
 72
    12
 73
    11
  0
VERTEX
  5
33B
  8
0
 62
     9
 10
0.0
 20
0.0
 30
0.0
 70
   128
 71
    11
 72
    12
 73
    13
  0
VERTEX
  5
33C
  8
0
 62
     9
 10
0.0
 20
0.0
 30
0.0
 70
   128
 71
    13
 72
     2
 73
     3
  0
VERTEX
  5
33D
  8
0
 62
     9
 10
0.0
 20
0.0
 30
0.0
 70
   128
 71
     3
 72
    14
 73
    13
  0
VERTEX
  5
33E
  8
0
 62
     9
 10
0.0
 20
0.0
 30
0.0
 70
   128
 71
    13
 72
    14
 73
    11
  0
VERTEX
  5
33F
  8
0
 62
     9
 10
0.0
 20
0.0
 30
0.0
 70
   128
 71
    11
 72
     8
 73
    10
  0
VERTEX
  5
340
  8
0
 62
     9
 10
0.0
 20
0.0
 30
0.0
 70
   128
 71
     6
 72
     7
 73
     9
  0
VERTEX
  5
341
  8
0
 62
     9
 10
0.0
 20
0.0
 30
0.0
 70
   128
 71
     6
 72
    15
 73
     4
  0
VERTEX
  5
342
  8
0
 62
     9
 10
0.0
 20
0.0
 30
0.0
 70
   128
 71
     4
 72
    15
 73
     5
  0
VERTEX
  5
343
  8
0
 62
     9
 10
0.0
 20
0.0
 30
0.0
 70
   128
 71
     1
 72
     5
 73
     3
  0
SEQEND
  5
344
  8
0
 62
     9
  0
ENDBLK
  5
347
  8
0
  0
BLOCK
  8
0
  2
E3_NODE_24_
 70
     0
 10
0.0
 20
0.0
 30
0.0
  3
E3_NODE_24_
  1

  0
POLYLINE
  5
349
  8
0
 62
     9
 66
     1
 10
0.0
 20
0.0
 30
0.0
 70
    64
 71
    19
 72
    19
  0
VERTEX
  5
34A
  8
0
 10
161.8359985351562
 20
0.0
 30
138.1649932861328
 70
   192
  0
VERTEX
  5
34B
  8
0
 10
160.1860046386719
 20
0.0
 30
147.52099609375
 70
   192
  0
VERTEX
  5
34C
  8
0
 10
156.8690032958984
 20
-8.131999969482422
 30
146.9360046386719
 70
   192
  0
VERTEX
  5
34D
  8
0
 10
156.1730041503906
 20
-9.958999633789062
 30
137.1660003662109
 70
   192
  0
VERTEX
  5
34E
  8
0
 10
150.5099945068359
 20
-11.5
 30
136.1679992675781
 70
   192
  0
VERTEX
  5
34F
  8
0
 10
148.8609924316406
 20
-11.5
 30
145.5240020751953
 70
   192
  0
VERTEX
  5
350
  8
0
 10
143.4909973144531
 20
-9.241000175476074
 30
144.5769958496094
 70
   192
  0
VERTEX
  5
351
  8
0
 10
154.2299957275391
 20
-9.241000175476074
 30
146.4700012207031
 70
   192
  0
VERTEX
  5
352
  8
0
 10
139.1849975585938
 20
0.0
 30
134.1710052490234
 70
   192
  0
VERTEX
  5
353
  8
0
 10
144.8480072021484
 20
-9.958999633789062
 30
135.1690063476562
 70
   192
  0
VERTEX
  5
354
  8
0
 10
140.8520050048828
 20
-8.131999969482422
 30
144.1119995117188
 70
   192
  0
VERTEX
  5
355
  8
0
 10
137.5350036621094
 20
0.0
 30
143.5269927978516
 70
   192
  0
VERTEX
  5
356
  8
0
 10
140.8520050048828
 20
8.131999969482422
 30
144.1119995117188
 70
   192
  0
VERTEX
  5
357
  8
0
 10
144.8480072021484
 20
9.958999633789062
 30
135.1690063476562
 70
   192
  0
VERTEX
  5
358
  8
0
 10
143.4909973144531
 20
9.241000175476074
 30
144.5769958496094
 70
   192
  0
VERTEX
  5
359
  8
0
 10
148.8609924316406
 20
11.5
 30
145.5240020751953
 70
   192
  0
VERTEX
  5
35A
  8
0
 10
156.1730041503906
 20
9.958999633789062
 30
137.1660003662109
 70
   192
  0
VERTEX
  5
35B
  8
0
 10
156.8690032958984
 20
8.131999969482422
 30
146.9360046386719
 70
   192
  0
VERTEX
  5
35C
  8
0
 10
154.2299957275391
 20
9.241000175476074
 30
146.4700012207031
 70
   192
  0
VERTEX
  5
35D
  8
0
 62
     9
 10
0.0
 20
0.0
 30
0.0
 70
   128
 71
     3
 72
     2
 73
     1
  0
VERTEX
  5
35E
  8
0
 62
     9
 10
0.0
 20
0.0
 30
0.0
 70
   128
 71
     1
 72
     4
 73
     3
  0
VERTEX
  5
35F
  8
0
 62
     9
 10
0.0
 20
0.0
 30
0.0
 70
   128
 71
     7
 72
     6
 73
     5
  0
VERTEX
  5
360
  8
0
 62
     9
 10
0.0
 20
0.0
 30
0.0
 70
   128
 71
     8
 72
     4
 73
     5
  0
VERTEX
  5
361
  8
0
 62
     9
 10
0.0
 20
0.0
 30
0.0
 70
   128
 71
     5
 72
     6
 73
     8
  0
VERTEX
  5
362
  8
0
 62
     9
 10
0.0
 20
0.0
 30
0.0
 70
   128
 71
    11
 72
    10
 73
     9
  0
VERTEX
  5
363
  8
0
 62
     9
 10
0.0
 20
0.0
 30
0.0
 70
   128
 71
    11
 72
     7
 73
    10
  0
VERTEX
  5
364
  8
0
 62
     9
 10
0.0
 20
0.0
 30
0.0
 70
   128
 71
    13
 72
    12
 73
     9
  0
VERTEX
  5
365
  8
0
 62
     9
 10
0.0
 20
0.0
 30
0.0
 70
   128
 71
     9
 72
    14
 73
    13
  0
VERTEX
  5
366
  8
0
 62
     9
 10
0.0
 20
0.0
 30
0.0
 70
   128
 71
    16
 72
    15
 73
    14
  0
VERTEX
  5
367
  8
0
 62
     9
 10
0.0
 20
0.0
 30
0.0
 70
   128
 71
    14
 72
    17
 73
    16
  0
VERTEX
  5
368
  8
0
 62
     9
 10
0.0
 20
0.0
 30
0.0
 70
   128
 71
    18
 72
    17
 73
     1
  0
VERTEX
  5
369
  8
0
 62
     9
 10
0.0
 20
0.0
 30
0.0
 70
   128
 71
    18
 72
    19
 73
    17
  0
VERTEX
  5
36A
  8
0
 62
     9
 10
0.0
 20
0.0
 30
0.0
 70
   128
 71
     1
 72
     2
 73
    18
  0
VERTEX
  5
36B
  8
0
 62
     9
 10
0.0
 20
0.0
 30
0.0
 70
   128
 71
    17
 72
    19
 73
    16
  0
VERTEX
  5
36C
  8
0
 62
     9
 10
0.0
 20
0.0
 30
0.0
 70
   128
 71
    14
 72
    15
 73
    13
  0
VERTEX
  5
36D
  8
0
 62
     9
 10
0.0
 20
0.0
 30
0.0
 70
   128
 71
     9
 72
    12
 73
    11
  0
VERTEX
  5
36E
  8
0
 62
     9
 10
0.0
 20
0.0
 30
0.0
 70
   128
 71
     5
 72
    10
 73
     7
  0
VERTEX
  5
36F
  8
0
 62
     9
 10
0.0
 20
0.0
 30
0.0
 70
   128
 71
     4
 72
     8
 73
     3
  0
SEQEND
  5
370
  8
0
 62
     9
  0
ENDBLK
  5
373
  8
0
  0
BLOCK
  8
0
  2
E3_NODE_25_
 70
     0
 10
0.0
 20
0.0
 30
0.0
  3
E3_NODE_25_
  1

  0
POLYLINE
  5
375
  8
0
 62
     9
 66
     1
 10
0.0
 20
0.0
 30
0.0
 70
    64
 71
    96
 72
   168
  0
VERTEX
  5
376
  8
0
 10
14.27499961853027
 20
0.0
 30
151.0659942626953
 70
   192
  0
VERTEX
  5
377
  8
0
 10
11.05399990081787
 20
-8.131999969482422
 30
152.0500030517578
 70
   192
  0
VERTEX
  5
378
  8
0
 10
9.241000175476074
 20
-5.453000068664551
 30
132.5
 70
   192
  0
VERTEX
  5
379
  8
0
 10
8.131999969482422
 20
-8.131999969482422
 30
132.5
 70
   192
  0
VERTEX
  5
37A
  8
0
 10
22.35600090026855
 20
0.0
 30
168.0090026855469
 70
   192
  0
VERTEX
  5
37B
  8
0
 10
19.56399917602539
 20
-8.131999969482422
 30
169.8919982910156
 70
   192
  0
VERTEX
  5
37C
  8
0
 10
35.03799819946289
 20
0.0
 30
181.8489990234375
 70
   192
  0
VERTEX
  5
37D
  8
0
 10
32.91799926757812
 20
-8.131999969482422
 30
184.4660034179688
 70
   192
  0
VERTEX
  5
37E
  8
0
 10
51.21200180053711
 20
0.0
 30
191.3760070800781
 70
   192
  0
VERTEX
  5
37F
  8
0
 10
49.95100021362305
 20
-8.131999969482422
 30
194.4989929199219
 70
   192
  0
VERTEX
  5
380
  8
0
 10
69.46600341796875
 20
0.0
 30
195.7579956054688
 70
   192
  0
VERTEX
  5
381
  8
0
 10
69.1719970703125
 20
-8.131999969482422
 30
199.1139984130859
 70
   192
  0
VERTEX
  5
382
  8
0
 10
88.2020034790039
 20
0.0
 30
194.6119995117188
 70
   192
  0
VERTEX
  5
383
  8
0
 10
88.90299987792969
 20
-8.131999969482422
 30
197.9069976806641
 70
   192
  0
VERTEX
  5
384
  8
0
 10
105.7850036621094
 20
0.0
 30
188.0379943847656
 70
   192
  0
VERTEX
  5
385
  8
0
 10
107.4179992675781
 20
-8.131999969482422
 30
190.9839935302734
 70
   192
  0
VERTEX
  5
386
  8
0
 10
120.6780014038086
 20
0.0
 30
176.6109924316406
 70
   192
  0
VERTEX
  5
387
  8
0
 10
123.1009979248047
 20
-8.131999969482422
 30
178.9510040283203
 70
   192
  0
VERTEX
  5
388
  8
0
 10
131.5789947509766
 20
0.0
 30
161.3280029296875
 70
   192
  0
VERTEX
  5
389
  8
0
 10
134.5800018310547
 20
-8.131999969482422
 30
162.8580017089844
 70
   192
  0
VERTEX
  5
38A
  8
0
 10
137.5350036621094
 20
0.0
 30
143.5269927978516
 70
   192
  0
VERTEX
  5
38B
  8
0
 10
3.276999950408936
 20
-11.5
 30
154.4279937744141
 70
   192
  0
VERTEX
  5
38C
  8
0
 10
0.0
 20
-11.5
 30
132.5
 70
   192
  0
VERTEX
  5
38D
  8
0
 10
12.82199954986572
 20
-11.5
 30
174.4389953613281
 70
   192
  0
VERTEX
  5
38E
  8
0
 10
27.80100059509277
 20
-11.5
 30
190.7859954833984
 70
   192
  0
VERTEX
  5
38F
  8
0
 10
46.90499877929688
 20
-11.5
 30
202.0390014648438
 70
   192
  0
VERTEX
  5
390
  8
0
 10
68.46299743652344
 20
-11.5
 30
207.2149963378906
 70
   192
  0
VERTEX
  5
391
  8
0
 10
90.59300231933594
 20
-11.5
 30
205.8609924316406
 70
   192
  0
VERTEX
  5
392
  8
0
 10
111.3610000610352
 20
-11.5
 30
198.0959930419922
 70
   192
  0
VERTEX
  5
393
  8
0
 10
128.9499969482422
 20
-11.5
 30
184.5989990234375
 70
   192
  0
VERTEX
  5
394
  8
0
 10
141.8249969482422
 20
-11.5
 30
166.5489959716797
 70
   192
  0
VERTEX
  5
395
  8
0
 10
143.4909973144531
 20
-9.241000175476074
 30
144.5769958496094
 70
   192
  0
VERTEX
  5
396
  8
0
 10
140.8520050048828
 20
-8.131999969482422
 30
144.1119995117188
 70
   192
  0
VERTEX
  5
397
  8
0
 10
-4.499000072479248
 20
-8.131999969482422
 30
156.8049926757812
 70
   192
  0
VERTEX
  5
398
  8
0
 10
-8.131999969482422
 20
-8.131999969482422
 30
132.5
 70
   192
  0
VERTEX
  5
399
  8
0
 10
6.080999851226807
 20
-8.131999969482422
 30
178.9869995117188
 70
   192
  0
VERTEX
  5
39A
  8
0
 10
22.68400001525879
 20
-8.131999969482422
 30
197.1049957275391
 70
   192
  0
VERTEX
  5
39B
  8
0
 10
43.85800170898438
 20
-8.131999969482422
 30
209.5780029296875
 70
   192
  0
VERTEX
  5
39C
  8
0
 10
67.75499725341797
 20
-8.131999969482422
 30
215.3150024414062
 70
   192
  0
VERTEX
  5
39D
  8
0
 10
92.28399658203125
 20
-8.131999969482422
 30
213.8150024414062
 70
   192
  0
VERTEX
  5
39E
  8
0
 10
115.3030014038086
 20
-8.131999969482422
 30
205.2089996337891
 70
   192
  0
VERTEX
  5
39F
  8
0
 10
134.8000030517578
 20
-8.131999969482422
 30
190.2480010986328
 70
   192
  0
VERTEX
  5
3A0
  8
0
 10
149.0709991455078
 20
-8.131999969482422
 30
170.2409973144531
 70
   192
  0
VERTEX
  5
3A1
  8
0
 10
154.2299957275391
 20
-9.241000175476074
 30
146.4700012207031
 70
   192
  0
VERTEX
  5
3A2
  8
0
 10
148.8609924316406
 20
-11.5
 30
145.5240020751953
 70
   192
  0
VERTEX
  5
3A3
  8
0
 10
-7.71999979019165
 20
0.0
 30
157.7899932861328
 70
   192
  0
VERTEX
  5
3A4
  8
0
 10
-9.241000175476074
 20
-5.453000068664551
 30
132.5
 70
   192
  0
VERTEX
  5
3A5
  8
0
 10
-11.5
 20
0.0
 30
132.5
 70
   192
  0
VERTEX
  5
3A6
  8
0
 10
3.288000106811523
 20
0.0
 30
180.8699951171875
 70
   192
  0
VERTEX
  5
3A7
  8
0
 10
20.56399917602539
 20
0.0
 30
199.7230072021484
 70
   192
  0
VERTEX
  5
3A8
  8
0
 10
42.59700012207031
 20
0.0
 30
212.7010040283203
 70
   192
  0
VERTEX
  5
3A9
  8
0
 10
67.46099853515625
 20
0.0
 30
218.6710052490234
 70
   192
  0
VERTEX
  5
3AA
  8
0
 10
92.98400115966797
 20
0.0
 30
217.1100006103516
 70
   192
  0
VERTEX
  5
3AB
  8
0
 10
116.9359970092773
 20
0.0
 30
208.1549987792969
 70
   192
  0
VERTEX
  5
3AC
  8
0
 10
137.2230072021484
 20
0.0
 30
192.5879974365234
 70
   192
  0
VERTEX
  5
3AD
  8
0
 10
152.0720062255859
 20
0.0
 30
171.7700042724609
 70
   192
  0
VERTEX
  5
3AE
  8
0
 10
156.8690032958984
 20
-8.131999969482422
 30
146.9360046386719
 70
   192
  0
VERTEX
  5
3AF
  8
0
 10
-4.499000072479248
 20
8.131999969482422
 30
156.8049926757812
 70
   192
  0
VERTEX
  5
3B0
  8
0
 10
-8.131999969482422
 20
8.131999969482422
 30
132.5
 70
   192
  0
VERTEX
  5
3B1
  8
0
 10
-9.241000175476074
 20
5.453000068664551
 30
132.5
 70
   192
  0
VERTEX
  5
3B2
  8
0
 10
6.080999851226807
 20
8.131999969482422
 30
178.9869995117188
 70
   192
  0
VERTEX
  5
3B3
  8
0
 10
22.68400001525879
 20
8.131999969482422
 30
197.1049957275391
 70
   192
  0
VERTEX
  5
3B4
  8
0
 10
43.85800170898438
 20
8.131999969482422
 30
209.5780029296875
 70
   192
  0
VERTEX
  5
3B5
  8
0
 10
67.75499725341797
 20
8.131999969482422
 30
215.3150024414062
 70
   192
  0
VERTEX
  5
3B6
  8
0
 10
92.28399658203125
 20
8.131999969482422
 30
213.8150024414062
 70
   192
  0
VERTEX
  5
3B7
  8
0
 10
115.3030014038086
 20
8.131999969482422
 30
205.2089996337891
 70
   192
  0
VERTEX
  5
3B8
  8
0
 10
134.8000030517578
 20
8.131999969482422
 30
190.2480010986328
 70
   192
  0
VERTEX
  5
3B9
  8
0
 10
149.0709991455078
 20
8.131999969482422
 30
170.2409973144531
 70
   192
  0
VERTEX
  5
3BA
  8
0
 10
160.1860046386719
 20
0.0
 30
147.52099609375
 70
   192
  0
VERTEX
  5
3BB
  8
0
 10
156.8690032958984
 20
8.131999969482422
 30
146.9360046386719
 70
   192
  0
VERTEX
  5
3BC
  8
0
 10
3.276999950408936
 20
11.5
 30
154.4279937744141
 70
   192
  0
VERTEX
  5
3BD
  8
0
 10
0.0
 20
11.5
 30
132.5
 70
   192
  0
VERTEX
  5
3BE
  8
0
 10
12.82199954986572
 20
11.5
 30
174.4389953613281
 70
   192
  0
VERTEX
  5
3BF
  8
0
 10
27.80100059509277
 20
11.5
 30
190.7859954833984
 70
   192
  0
VERTEX
  5
3C0
  8
0
 10
46.90499877929688
 20
11.5
 30
202.0390014648438
 70
   192
  0
VERTEX
  5
3C1
  8
0
 10
68.46299743652344
 20
11.5
 30
207.2149963378906
 70
   192
  0
VERTEX
  5
3C2
  8
0
 10
90.59300231933594
 20
11.5
 30
205.8609924316406
 70
   192
  0
VERTEX
  5
3C3
  8
0
 10
111.3610000610352
 20
11.5
 30
198.0959930419922
 70
   192
  0
VERTEX
  5
3C4
  8
0
 10
128.9499969482422
 20
11.5
 30
184.5989990234375
 70
   192
  0
VERTEX
  5
3C5
  8
0
 10
141.8249969482422
 20
11.5
 30
166.5489959716797
 70
   192
  0
VERTEX
  5
3C6
  8
0
 10
154.2299957275391
 20
9.241000175476074
 30
146.4700012207031
 70
   192
  0
VERTEX
  5
3C7
  8
0
 10
148.8609924316406
 20
11.5
 30
145.5240020751953
 70
   192
  0
VERTEX
  5
3C8
  8
0
 10
11.05399990081787
 20
8.131999969482422
 30
152.0500030517578
 70
   192
  0
VERTEX
  5
3C9
  8
0
 10
19.56399917602539
 20
8.131999969482422
 30
169.8919982910156
 70
   192
  0
VERTEX
  5
3CA
  8
0
 10
32.91799926757812
 20
8.131999969482422
 30
184.4660034179688
 70
   192
  0
VERTEX
  5
3CB
  8
0
 10
49.95100021362305
 20
8.131999969482422
 30
194.4989929199219
 70
   192
  0
VERTEX
  5
3CC
  8
0
 10
69.1719970703125
 20
8.131999969482422
 30
199.1139984130859
 70
   192
  0
VERTEX
  5
3CD
  8
0
 10
88.90299987792969
 20
8.131999969482422
 30
197.9069976806641
 70
   192
  0
VERTEX
  5
3CE
  8
0
 10
107.4179992675781
 20
8.131999969482422
 30
190.9839935302734
 70
   192
  0
VERTEX
  5
3CF
  8
0
 10
123.1009979248047
 20
8.131999969482422
 30
178.9510040283203
 70
   192
  0
VERTEX
  5
3D0
  8
0
 10
134.5800018310547
 20
8.131999969482422
 30
162.8580017089844
 70
   192
  0
VERTEX
  5
3D1
  8
0
 10
143.4909973144531
 20
9.241000175476074
 30
144.5769958496094
 70
   192
  0
VERTEX
  5
3D2
  8
0
 10
140.8520050048828
 20
8.131999969482422
 30
144.1119995117188
 70
   192
  0
VERTEX
  5
3D3
  8
0
 10
11.5
 20
0.0
 30
132.5
 70
   192
  0
VERTEX
  5
3D4
  8
0
 10
9.241000175476074
 20
5.453000068664551
 30
132.5
 70
   192
  0
VERTEX
  5
3D5
  8
0
 10
8.131999969482422
 20
8.131999969482422
 30
132.5
 70
   192
  0
VERTEX
  5
3D6
  8
0
 62
     9
 10
0.0
 20
0.0
 30
0.0
 70
   128
 71
     3
 72
     2
 73
     1
  0
VERTEX
  5
3D7
  8
0
 62
     9
 10
0.0
 20
0.0
 30
0.0
 70
   128
 71
     3
 72
     4
 73
     2
  0
VERTEX
  5
3D8
  8
0
 62
     9
 10
0.0
 20
0.0
 30
0.0
 70
   128
 71
     6
 72
     5
 73
     1
  0
VERTEX
  5
3D9
  8
0
 62
     9
 10
0.0
 20
0.0
 30
0.0
 70
   128
 71
     8
 72
     7
 73
     5
  0
VERTEX
  5
3DA
  8
0
 62
     9
 10
0.0
 20
0.0
 30
0.0
 70
   128
 71
    10
 72
     9
 73
     7
  0
VERTEX
  5
3DB
  8
0
 62
     9
 10
0.0
 20
0.0
 30
0.0
 70
   128
 71
    12
 72
    11
 73
     9
  0
VERTEX
  5
3DC
  8
0
 62
     9
 10
0.0
 20
0.0
 30
0.0
 70
   128
 71
    14
 72
    13
 73
    11
  0
VERTEX
  5
3DD
  8
0
 62
     9
 10
0.0
 20
0.0
 30
0.0
 70
   128
 71
    16
 72
    15
 73
    13
  0
VERTEX
  5
3DE
  8
0
 62
     9
 10
0.0
 20
0.0
 30
0.0
 70
   128
 71
    18
 72
    17
 73
    15
  0
VERTEX
  5
3DF
  8
0
 62
     9
 10
0.0
 20
0.0
 30
0.0
 70
   128
 71
    20
 72
    19
 73
    17
  0
VERTEX
  5
3E0
  8
0
 62
     9
 10
0.0
 20
0.0
 30
0.0
 70
   128
 71
    21
 72
    19
 73
    20
  0
VERTEX
  5
3E1
  8
0
 62
     9
 10
0.0
 20
0.0
 30
0.0
 70
   128
 71
     4
 72
    23
 73
    22
  0
VERTEX
  5
3E2
  8
0
 62
     9
 10
0.0
 20
0.0
 30
0.0
 70
   128
 71
    24
 72
     6
 73
     2
  0
VERTEX
  5
3E3
  8
0
 62
     9
 10
0.0
 20
0.0
 30
0.0
 70
   128
 71
    25
 72
     8
 73
     6
  0
VERTEX
  5
3E4
  8
0
 62
     9
 10
0.0
 20
0.0
 30
0.0
 70
   128
 71
    26
 72
    10
 73
     8
  0
VERTEX
  5
3E5
  8
0
 62
     9
 10
0.0
 20
0.0
 30
0.0
 70
   128
 71
    27
 72
    12
 73
    10
  0
VERTEX
  5
3E6
  8
0
 62
     9
 10
0.0
 20
0.0
 30
0.0
 70
   128
 71
    28
 72
    14
 73
    12
  0
VERTEX
  5
3E7
  8
0
 62
     9
 10
0.0
 20
0.0
 30
0.0
 70
   128
 71
    29
 72
    16
 73
    14
  0
VERTEX
  5
3E8
  8
0
 62
     9
 10
0.0
 20
0.0
 30
0.0
 70
   128
 71
    30
 72
    18
 73
    16
  0
VERTEX
  5
3E9
  8
0
 62
     9
 10
0.0
 20
0.0
 30
0.0
 70
   128
 71
    31
 72
    20
 73
    18
  0
VERTEX
  5
3EA
  8
0
 62
     9
 10
0.0
 20
0.0
 30
0.0
 70
   128
 71
    20
 72
    31
 73
    32
  0
VERTEX
  5
3EB
  8
0
 62
     9
 10
0.0
 20
0.0
 30
0.0
 70
   128
 71
    32
 72
    33
 73
    20
  0
VERTEX
  5
3EC
  8
0
 62
     9
 10
0.0
 20
0.0
 30
0.0
 70
   128
 71
    23
 72
    35
 73
    34
  0
VERTEX
  5
3ED
  8
0
 62
     9
 10
0.0
 20
0.0
 30
0.0
 70
   128
 71
    36
 72
    24
 73
    22
  0
VERTEX
  5
3EE
  8
0
 62
     9
 10
0.0
 20
0.0
 30
0.0
 70
   128
 71
    37
 72
    25
 73
    24
  0
VERTEX
  5
3EF
  8
0
 62
     9
 10
0.0
 20
0.0
 30
0.0
 70
   128
 71
    38
 72
    26
 73
    25
  0
VERTEX
  5
3F0
  8
0
 62
     9
 10
0.0
 20
0.0
 30
0.0
 70
   128
 71
    39
 72
    27
 73
    26
  0
VERTEX
  5
3F1
  8
0
 62
     9
 10
0.0
 20
0.0
 30
0.0
 70
   128
 71
    40
 72
    28
 73
    27
  0
VERTEX
  5
3F2
  8
0
 62
     9
 10
0.0
 20
0.0
 30
0.0
 70
   128
 71
    41
 72
    29
 73
    28
  0
VERTEX
  5
3F3
  8
0
 62
     9
 10
0.0
 20
0.0
 30
0.0
 70
   128
 71
    42
 72
    30
 73
    29
  0
VERTEX
  5
3F4
  8
0
 62
     9
 10
0.0
 20
0.0
 30
0.0
 70
   128
 71
    43
 72
    31
 73
    30
  0
VERTEX
  5
3F5
  8
0
 62
     9
 10
0.0
 20
0.0
 30
0.0
 70
   128
 71
    31
 72
    43
 73
    44
  0
VERTEX
  5
3F6
  8
0
 62
     9
 10
0.0
 20
0.0
 30
0.0
 70
   128
 71
    44
 72
    45
 73
    31
  0
VERTEX
  5
3F7
  8
0
 62
     9
 10
0.0
 20
0.0
 30
0.0
 70
   128
 71
    47
 72
    46
 73
    34
  0
VERTEX
  5
3F8
  8
0
 62
     9
 10
0.0
 20
0.0
 30
0.0
 70
   128
 71
    47
 72
    48
 73
    46
  0
VERTEX
  5
3F9
  8
0
 62
     9
 10
0.0
 20
0.0
 30
0.0
 70
   128
 71
    49
 72
    36
 73
    34
  0
VERTEX
  5
3FA
  8
0
 62
     9
 10
0.0
 20
0.0
 30
0.0
 70
   128
 71
    50
 72
    37
 73
    36
  0
VERTEX
  5
3FB
  8
0
 62
     9
 10
0.0
 20
0.0
 30
0.0
 70
   128
 71
    51
 72
    38
 73
    37
  0
VERTEX
  5
3FC
  8
0
 62
     9
 10
0.0
 20
0.0
 30
0.0
 70
   128
 71
    52
 72
    39
 73
    38
  0
VERTEX
  5
3FD
  8
0
 62
     9
 10
0.0
 20
0.0
 30
0.0
 70
   128
 71
    53
 72
    40
 73
    39
  0
VERTEX
  5
3FE
  8
0
 62
     9
 10
0.0
 20
0.0
 30
0.0
 70
   128
 71
    54
 72
    41
 73
    40
  0
VERTEX
  5
3FF
  8
0
 62
     9
 10
0.0
 20
0.0
 30
0.0
 70
   128
 71
    55
 72
    42
 73
    41
  0
VERTEX
  5
400
  8
0
 62
     9
 10
0.0
 20
0.0
 30
0.0
 70
   128
 71
    56
 72
    43
 73
    42
  0
VERTEX
  5
401
  8
0
 62
     9
 10
0.0
 20
0.0
 30
0.0
 70
   128
 71
    57
 72
    43
 73
    56
  0
VERTEX
  5
402
  8
0
 62
     9
 10
0.0
 20
0.0
 30
0.0
 70
   128
 71
    60
 72
    59
 73
    58
  0
VERTEX
  5
403
  8
0
 62
     9
 10
0.0
 20
0.0
 30
0.0
 70
   128
 71
    58
 72
    46
 73
    60
  0
VERTEX
  5
404
  8
0
 62
     9
 10
0.0
 20
0.0
 30
0.0
 70
   128
 71
    61
 72
    49
 73
    46
  0
VERTEX
  5
405
  8
0
 62
     9
 10
0.0
 20
0.0
 30
0.0
 70
   128
 71
    62
 72
    50
 73
    49
  0
VERTEX
  5
406
  8
0
 62
     9
 10
0.0
 20
0.0
 30
0.0
 70
   128
 71
    63
 72
    51
 73
    50
  0
VERTEX
  5
407
  8
0
 62
     9
 10
0.0
 20
0.0
 30
0.0
 70
   128
 71
    64
 72
    52
 73
    51
  0
VERTEX
  5
408
  8
0
 62
     9
 10
0.0
 20
0.0
 30
0.0
 70
   128
 71
    65
 72
    53
 73
    52
  0
VERTEX
  5
409
  8
0
 62
     9
 10
0.0
 20
0.0
 30
0.0
 70
   128
 71
    66
 72
    54
 73
    53
  0
VERTEX
  5
40A
  8
0
 62
     9
 10
0.0
 20
0.0
 30
0.0
 70
   128
 71
    67
 72
    55
 73
    54
  0
VERTEX
  5
40B
  8
0
 62
     9
 10
0.0
 20
0.0
 30
0.0
 70
   128
 71
    68
 72
    56
 73
    55
  0
VERTEX
  5
40C
  8
0
 62
     9
 10
0.0
 20
0.0
 30
0.0
 70
   128
 71
    70
 72
    69
 73
    56
  0
VERTEX
  5
40D
  8
0
 62
     9
 10
0.0
 20
0.0
 30
0.0
 70
   128
 71
    72
 72
    71
 73
    58
  0
VERTEX
  5
40E
  8
0
 62
     9
 10
0.0
 20
0.0
 30
0.0
 70
   128
 71
    73
 72
    61
 73
    58
  0
VERTEX
  5
40F
  8
0
 62
     9
 10
0.0
 20
0.0
 30
0.0
 70
   128
 71
    74
 72
    62
 73
    61
  0
VERTEX
  5
410
  8
0
 62
     9
 10
0.0
 20
0.0
 30
0.0
 70
   128
 71
    75
 72
    63
 73
    62
  0
VERTEX
  5
411
  8
0
 62
     9
 10
0.0
 20
0.0
 30
0.0
 70
   128
 71
    76
 72
    64
 73
    63
  0
VERTEX
  5
412
  8
0
 62
     9
 10
0.0
 20
0.0
 30
0.0
 70
   128
 71
    77
 72
    65
 73
    64
  0
VERTEX
  5
413
  8
0
 62
     9
 10
0.0
 20
0.0
 30
0.0
 70
   128
 71
    78
 72
    66
 73
    65
  0
VERTEX
  5
414
  8
0
 62
     9
 10
0.0
 20
0.0
 30
0.0
 70
   128
 71
    79
 72
    67
 73
    66
  0
VERTEX
  5
415
  8
0
 62
     9
 10
0.0
 20
0.0
 30
0.0
 70
   128
 71
    80
 72
    68
 73
    67
  0
VERTEX
  5
416
  8
0
 62
     9
 10
0.0
 20
0.0
 30
0.0
 70
   128
 71
    80
 72
    82
 73
    81
  0
VERTEX
  5
417
  8
0
 62
     9
 10
0.0
 20
0.0
 30
0.0
 70
   128
 71
    81
 72
    70
 73
    68
  0
VERTEX
  5
418
  8
0
 62
     9
 10
0.0
 20
0.0
 30
0.0
 70
   128
 71
    83
 72
    71
 73
    72
  0
VERTEX
  5
419
  8
0
 62
     9
 10
0.0
 20
0.0
 30
0.0
 70
   128
 71
    84
 72
    73
 73
    71
  0
VERTEX
  5
41A
  8
0
 62
     9
 10
0.0
 20
0.0
 30
0.0
 70
   128
 71
    85
 72
    74
 73
    73
  0
VERTEX
  5
41B
  8
0
 62
     9
 10
0.0
 20
0.0
 30
0.0
 70
   128
 71
    86
 72
    75
 73
    74
  0
VERTEX
  5
41C
  8
0
 62
     9
 10
0.0
 20
0.0
 30
0.0
 70
   128
 71
    87
 72
    76
 73
    75
  0
VERTEX
  5
41D
  8
0
 62
     9
 10
0.0
 20
0.0
 30
0.0
 70
   128
 71
    88
 72
    77
 73
    76
  0
VERTEX
  5
41E
  8
0
 62
     9
 10
0.0
 20
0.0
 30
0.0
 70
   128
 71
    89
 72
    78
 73
    77
  0
VERTEX
  5
41F
  8
0
 62
     9
 10
0.0
 20
0.0
 30
0.0
 70
   128
 71
    90
 72
    79
 73
    78
  0
VERTEX
  5
420
  8
0
 62
     9
 10
0.0
 20
0.0
 30
0.0
 70
   128
 71
    91
 72
    80
 73
    79
  0
VERTEX
  5
421
  8
0
 62
     9
 10
0.0
 20
0.0
 30
0.0
 70
   128
 71
    91
 72
    93
 73
    92
  0
VERTEX
  5
422
  8
0
 62
     9
 10
0.0
 20
0.0
 30
0.0
 70
   128
 71
    92
 72
    82
 73
    80
  0
VERTEX
  5
423
  8
0
 62
     9
 10
0.0
 20
0.0
 30
0.0
 70
   128
 71
    95
 72
    94
 73
     1
  0
VERTEX
  5
424
  8
0
 62
     9
 10
0.0
 20
0.0
 30
0.0
 70
   128
 71
     1
 72
    83
 73
    95
  0
VERTEX
  5
425
  8
0
 62
     9
 10
0.0
 20
0.0
 30
0.0
 70
   128
 71
     5
 72
    84
 73
    83
  0
VERTEX
  5
426
  8
0
 62
     9
 10
0.0
 20
0.0
 30
0.0
 70
   128
 71
     7
 72
    85
 73
    84
  0
VERTEX
  5
427
  8
0
 62
     9
 10
0.0
 20
0.0
 30
0.0
 70
   128
 71
     9
 72
    86
 73
    85
  0
VERTEX
  5
428
  8
0
 62
     9
 10
0.0
 20
0.0
 30
0.0
 70
   128
 71
    11
 72
    87
 73
    86
  0
VERTEX
  5
429
  8
0
 62
     9
 10
0.0
 20
0.0
 30
0.0
 70
   128
 71
    13
 72
    88
 73
    87
  0
VERTEX
  5
42A
  8
0
 62
     9
 10
0.0
 20
0.0
 30
0.0
 70
   128
 71
    15
 72
    89
 73
    88
  0
VERTEX
  5
42B
  8
0
 62
     9
 10
0.0
 20
0.0
 30
0.0
 70
   128
 71
    17
 72
    90
 73
    89
  0
VERTEX
  5
42C
  8
0
 62
     9
 10
0.0
 20
0.0
 30
0.0
 70
   128
 71
    19
 72
    91
 73
    90
  0
VERTEX
  5
42D
  8
0
 62
     9
 10
0.0
 20
0.0
 30
0.0
 70
   128
 71
    19
 72
    21
 73
    93
  0
VERTEX
  5
42E
  8
0
 62
     9
 10
0.0
 20
0.0
 30
0.0
 70
   128
 71
    93
 72
    91
 73
    19
  0
VERTEX
  5
42F
  8
0
 62
     9
 10
0.0
 20
0.0
 30
0.0
 70
   128
 71
    90
 72
    17
 73
    19
  0
VERTEX
  5
430
  8
0
 62
     9
 10
0.0
 20
0.0
 30
0.0
 70
   128
 71
    89
 72
    15
 73
    17
  0
VERTEX
  5
431
  8
0
 62
     9
 10
0.0
 20
0.0
 30
0.0
 70
   128
 71
    88
 72
    13
 73
    15
  0
VERTEX
  5
432
  8
0
 62
     9
 10
0.0
 20
0.0
 30
0.0
 70
   128
 71
    87
 72
    11
 73
    13
  0
VERTEX
  5
433
  8
0
 62
     9
 10
0.0
 20
0.0
 30
0.0
 70
   128
 71
    86
 72
     9
 73
    11
  0
VERTEX
  5
434
  8
0
 62
     9
 10
0.0
 20
0.0
 30
0.0
 70
   128
 71
    85
 72
     7
 73
     9
  0
VERTEX
  5
435
  8
0
 62
     9
 10
0.0
 20
0.0
 30
0.0
 70
   128
 71
    84
 72
     5
 73
     7
  0
VERTEX
  5
436
  8
0
 62
     9
 10
0.0
 20
0.0
 30
0.0
 70
   128
 71
    83
 72
     1
 73
     5
  0
VERTEX
  5
437
  8
0
 62
     9
 10
0.0
 20
0.0
 30
0.0
 70
   128
 71
    83
 72
    96
 73
    95
  0
VERTEX
  5
438
  8
0
 62
     9
 10
0.0
 20
0.0
 30
0.0
 70
   128
 71
    92
 72
    80
 73
    91
  0
VERTEX
  5
439
  8
0
 62
     9
 10
0.0
 20
0.0
 30
0.0
 70
   128
 71
    79
 72
    90
 73
    91
  0
VERTEX
  5
43A
  8
0
 62
     9
 10
0.0
 20
0.0
 30
0.0
 70
   128
 71
    78
 72
    89
 73
    90
  0
VERTEX
  5
43B
  8
0
 62
     9
 10
0.0
 20
0.0
 30
0.0
 70
   128
 71
    77
 72
    88
 73
    89
  0
VERTEX
  5
43C
  8
0
 62
     9
 10
0.0
 20
0.0
 30
0.0
 70
   128
 71
    76
 72
    87
 73
    88
  0
VERTEX
  5
43D
  8
0
 62
     9
 10
0.0
 20
0.0
 30
0.0
 70
   128
 71
    75
 72
    86
 73
    87
  0
VERTEX
  5
43E
  8
0
 62
     9
 10
0.0
 20
0.0
 30
0.0
 70
   128
 71
    74
 72
    85
 73
    86
  0
VERTEX
  5
43F
  8
0
 62
     9
 10
0.0
 20
0.0
 30
0.0
 70
   128
 71
    73
 72
    84
 73
    85
  0
VERTEX
  5
440
  8
0
 62
     9
 10
0.0
 20
0.0
 30
0.0
 70
   128
 71
    71
 72
    83
 73
    84
  0
VERTEX
  5
441
  8
0
 62
     9
 10
0.0
 20
0.0
 30
0.0
 70
   128
 71
    72
 72
    96
 73
    83
  0
VERTEX
  5
442
  8
0
 62
     9
 10
0.0
 20
0.0
 30
0.0
 70
   128
 71
    81
 72
    68
 73
    80
  0
VERTEX
  5
443
  8
0
 62
     9
 10
0.0
 20
0.0
 30
0.0
 70
   128
 71
    67
 72
    79
 73
    80
  0
VERTEX
  5
444
  8
0
 62
     9
 10
0.0
 20
0.0
 30
0.0
 70
   128
 71
    66
 72
    78
 73
    79
  0
VERTEX
  5
445
  8
0
 62
     9
 10
0.0
 20
0.0
 30
0.0
 70
   128
 71
    65
 72
    77
 73
    78
  0
VERTEX
  5
446
  8
0
 62
     9
 10
0.0
 20
0.0
 30
0.0
 70
   128
 71
    64
 72
    76
 73
    77
  0
VERTEX
  5
447
  8
0
 62
     9
 10
0.0
 20
0.0
 30
0.0
 70
   128
 71
    63
 72
    75
 73
    76
  0
VERTEX
  5
448
  8
0
 62
     9
 10
0.0
 20
0.0
 30
0.0
 70
   128
 71
    62
 72
    74
 73
    75
  0
VERTEX
  5
449
  8
0
 62
     9
 10
0.0
 20
0.0
 30
0.0
 70
   128
 71
    61
 72
    73
 73
    74
  0
VERTEX
  5
44A
  8
0
 62
     9
 10
0.0
 20
0.0
 30
0.0
 70
   128
 71
    58
 72
    71
 73
    73
  0
VERTEX
  5
44B
  8
0
 62
     9
 10
0.0
 20
0.0
 30
0.0
 70
   128
 71
    58
 72
    59
 73
    72
  0
VERTEX
  5
44C
  8
0
 62
     9
 10
0.0
 20
0.0
 30
0.0
 70
   128
 71
    56
 72
    68
 73
    70
  0
VERTEX
  5
44D
  8
0
 62
     9
 10
0.0
 20
0.0
 30
0.0
 70
   128
 71
    55
 72
    67
 73
    68
  0
VERTEX
  5
44E
  8
0
 62
     9
 10
0.0
 20
0.0
 30
0.0
 70
   128
 71
    54
 72
    66
 73
    67
  0
VERTEX
  5
44F
  8
0
 62
     9
 10
0.0
 20
0.0
 30
0.0
 70
   128
 71
    53
 72
    65
 73
    66
  0
VERTEX
  5
450
  8
0
 62
     9
 10
0.0
 20
0.0
 30
0.0
 70
   128
 71
    52
 72
    64
 73
    65
  0
VERTEX
  5
451
  8
0
 62
     9
 10
0.0
 20
0.0
 30
0.0
 70
   128
 71
    51
 72
    63
 73
    64
  0
VERTEX
  5
452
  8
0
 62
     9
 10
0.0
 20
0.0
 30
0.0
 70
   128
 71
    50
 72
    62
 73
    63
  0
VERTEX
  5
453
  8
0
 62
     9
 10
0.0
 20
0.0
 30
0.0
 70
   128
 71
    49
 72
    61
 73
    62
  0
VERTEX
  5
454
  8
0
 62
     9
 10
0.0
 20
0.0
 30
0.0
 70
   128
 71
    46
 72
    58
 73
    61
  0
VERTEX
  5
455
  8
0
 62
     9
 10
0.0
 20
0.0
 30
0.0
 70
   128
 71
    46
 72
    48
 73
    60
  0
VERTEX
  5
456
  8
0
 62
     9
 10
0.0
 20
0.0
 30
0.0
 70
   128
 71
    56
 72
    69
 73
    57
  0
VERTEX
  5
457
  8
0
 62
     9
 10
0.0
 20
0.0
 30
0.0
 70
   128
 71
    42
 72
    55
 73
    56
  0
VERTEX
  5
458
  8
0
 62
     9
 10
0.0
 20
0.0
 30
0.0
 70
   128
 71
    41
 72
    54
 73
    55
  0
VERTEX
  5
459
  8
0
 62
     9
 10
0.0
 20
0.0
 30
0.0
 70
   128
 71
    40
 72
    53
 73
    54
  0
VERTEX
  5
45A
  8
0
 62
     9
 10
0.0
 20
0.0
 30
0.0
 70
   128
 71
    39
 72
    52
 73
    53
  0
VERTEX
  5
45B
  8
0
 62
     9
 10
0.0
 20
0.0
 30
0.0
 70
   128
 71
    38
 72
    51
 73
    52
  0
VERTEX
  5
45C
  8
0
 62
     9
 10
0.0
 20
0.0
 30
0.0
 70
   128
 71
    37
 72
    50
 73
    51
  0
VERTEX
  5
45D
  8
0
 62
     9
 10
0.0
 20
0.0
 30
0.0
 70
   128
 71
    36
 72
    49
 73
    50
  0
VERTEX
  5
45E
  8
0
 62
     9
 10
0.0
 20
0.0
 30
0.0
 70
   128
 71
    34
 72
    46
 73
    49
  0
VERTEX
  5
45F
  8
0
 62
     9
 10
0.0
 20
0.0
 30
0.0
 70
   128
 71
    34
 72
    35
 73
    47
  0
VERTEX
  5
460
  8
0
 62
     9
 10
0.0
 20
0.0
 30
0.0
 70
   128
 71
    43
 72
    57
 73
    44
  0
VERTEX
  5
461
  8
0
 62
     9
 10
0.0
 20
0.0
 30
0.0
 70
   128
 71
    30
 72
    42
 73
    43
  0
VERTEX
  5
462
  8
0
 62
     9
 10
0.0
 20
0.0
 30
0.0
 70
   128
 71
    29
 72
    41
 73
    42
  0
VERTEX
  5
463
  8
0
 62
     9
 10
0.0
 20
0.0
 30
0.0
 70
   128
 71
    28
 72
    40
 73
    41
  0
VERTEX
  5
464
  8
0
 62
     9
 10
0.0
 20
0.0
 30
0.0
 70
   128
 71
    27
 72
    39
 73
    40
  0
VERTEX
  5
465
  8
0
 62
     9
 10
0.0
 20
0.0
 30
0.0
 70
   128
 71
    26
 72
    38
 73
    39
  0
VERTEX
  5
466
  8
0
 62
     9
 10
0.0
 20
0.0
 30
0.0
 70
   128
 71
    25
 72
    37
 73
    38
  0
VERTEX
  5
467
  8
0
 62
     9
 10
0.0
 20
0.0
 30
0.0
 70
   128
 71
    24
 72
    36
 73
    37
  0
VERTEX
  5
468
  8
0
 62
     9
 10
0.0
 20
0.0
 30
0.0
 70
   128
 71
    22
 72
    34
 73
    36
  0
VERTEX
  5
469
  8
0
 62
     9
 10
0.0
 20
0.0
 30
0.0
 70
   128
 71
    34
 72
    22
 73
    23
  0
VERTEX
  5
46A
  8
0
 62
     9
 10
0.0
 20
0.0
 30
0.0
 70
   128
 71
    31
 72
    45
 73
    32
  0
VERTEX
  5
46B
  8
0
 62
     9
 10
0.0
 20
0.0
 30
0.0
 70
   128
 71
    18
 72
    30
 73
    31
  0
VERTEX
  5
46C
  8
0
 62
     9
 10
0.0
 20
0.0
 30
0.0
 70
   128
 71
    16
 72
    29
 73
    30
  0
VERTEX
  5
46D
  8
0
 62
     9
 10
0.0
 20
0.0
 30
0.0
 70
   128
 71
    14
 72
    28
 73
    29
  0
VERTEX
  5
46E
  8
0
 62
     9
 10
0.0
 20
0.0
 30
0.0
 70
   128
 71
    12
 72
    27
 73
    28
  0
VERTEX
  5
46F
  8
0
 62
     9
 10
0.0
 20
0.0
 30
0.0
 70
   128
 71
    10
 72
    26
 73
    27
  0
VERTEX
  5
470
  8
0
 62
     9
 10
0.0
 20
0.0
 30
0.0
 70
   128
 71
     8
 72
    25
 73
    26
  0
VERTEX
  5
471
  8
0
 62
     9
 10
0.0
 20
0.0
 30
0.0
 70
   128
 71
     6
 72
    24
 73
    25
  0
VERTEX
  5
472
  8
0
 62
     9
 10
0.0
 20
0.0
 30
0.0
 70
   128
 71
     2
 72
    22
 73
    24
  0
VERTEX
  5
473
  8
0
 62
     9
 10
0.0
 20
0.0
 30
0.0
 70
   128
 71
    22
 72
     2
 73
     4
  0
VERTEX
  5
474
  8
0
 62
     9
 10
0.0
 20
0.0
 30
0.0
 70
   128
 71
    20
 72
    33
 73
    21
  0
VERTEX
  5
475
  8
0
 62
     9
 10
0.0
 20
0.0
 30
0.0
 70
   128
 71
    17
 72
    18
 73
    20
  0
VERTEX
  5
476
  8
0
 62
     9
 10
0.0
 20
0.0
 30
0.0
 70
   128
 71
    15
 72
    16
 73
    18
  0
VERTEX
  5
477
  8
0
 62
     9
 10
0.0
 20
0.0
 30
0.0
 70
   128
 71
    13
 72
    14
 73
    16
  0
VERTEX
  5
478
  8
0
 62
     9
 10
0.0
 20
0.0
 30
0.0
 70
   128
 71
    11
 72
    12
 73
    14
  0
VERTEX
  5
479
  8
0
 62
     9
 10
0.0
 20
0.0
 30
0.0
 70
   128
 71
     9
 72
    10
 73
    12
  0
VERTEX
  5
47A
  8
0
 62
     9
 10
0.0
 20
0.0
 30
0.0
 70
   128
 71
     7
 72
     8
 73
    10
  0
VERTEX
  5
47B
  8
0
 62
     9
 10
0.0
 20
0.0
 30
0.0
 70
   128
 71
     5
 72
     6
 73
     8
  0
VERTEX
  5
47C
  8
0
 62
     9
 10
0.0
 20
0.0
 30
0.0
 70
   128
 71
     1
 72
     2
 73
     6
  0
VERTEX
  5
47D
  8
0
 62
     9
 10
0.0
 20
0.0
 30
0.0
 70
   128
 71
     1
 72
    94
 73
     3
  0
SEQEND
  5
47E
  8
0
 62
     9
  0
ENDBLK
  5
481
  8
0
  0
BLOCK
  8
0
  2
E3_NODE_26_
 70
     0
 10
0.0
 20
0.0
 30
0.0
  3
E3_NODE_26_
  1

  0
POLYLINE
  5
483
  8
0
 62
     9
 66
     1
 10
0.0
 20
0.0
 30
0.0
 70
    64
 71
    18
 72
    18
  0
VERTEX
  5
484
  8
0
 10
0.0
 20
-11.5
 30
36.5
 70
   192
  0
VERTEX
  5
485
  8
0
 10
9.958999633789062
 20
-5.75
 30
36.5
 70
   192
  0
VERTEX
  5
486
  8
0
 10
8.131999969482422
 20
-8.131999969482422
 30
132.5
 70
   192
  0
VERTEX
  5
487
  8
0
 10
9.241000175476074
 20
-5.453000068664551
 30
132.5
 70
   192
  0
VERTEX
  5
488
  8
0
 10
9.958999633789062
 20
5.75
 30
36.5
 70
   192
  0
VERTEX
  5
489
  8
0
 10
9.241000175476074
 20
5.453000068664551
 30
132.5
 70
   192
  0
VERTEX
  5
48A
  8
0
 10
11.5
 20
0.0
 30
132.5
 70
   192
  0
VERTEX
  5
48B
  8
0
 10
0.0
 20
11.5
 30
36.5
 70
   192
  0
VERTEX
  5
48C
  8
0
 10
0.0
 20
11.5
 30
132.5
 70
   192
  0
VERTEX
  5
48D
  8
0
 10
8.131999969482422
 20
8.131999969482422
 30
132.5
 70
   192
  0
VERTEX
  5
48E
  8
0
 10
-9.958999633789062
 20
5.75
 30
36.5
 70
   192
  0
VERTEX
  5
48F
  8
0
 10
-8.131999969482422
 20
8.131999969482422
 30
132.5
 70
   192
  0
VERTEX
  5
490
  8
0
 10
-9.241000175476074
 20
5.453000068664551
 30
132.5
 70
   192
  0
VERTEX
  5
491
  8
0
 10
-9.958999633789062
 20
-5.75
 30
36.5
 70
   192
  0
VERTEX
  5
492
  8
0
 10
-9.241000175476074
 20
-5.453000068664551
 30
132.5
 70
   192
  0
VERTEX
  5
493
  8
0
 10
-11.5
 20
0.0
 30
132.5
 70
   192
  0
VERTEX
  5
494
  8
0
 10
0.0
 20
-11.5
 30
132.5
 70
   192
  0
VERTEX
  5
495
  8
0
 10
-8.131999969482422
 20
-8.131999969482422
 30
132.5
 70
   192
  0
VERTEX
  5
496
  8
0
 62
     9
 10
0.0
 20
0.0
 30
0.0
 70
   128
 71
     3
 72
     2
 73
     1
  0
VERTEX
  5
497
  8
0
 62
     9
 10
0.0
 20
0.0
 30
0.0
 70
   128
 71
     3
 72
     4
 73
     2
  0
VERTEX
  5
498
  8
0
 62
     9
 10
0.0
 20
0.0
 30
0.0
 70
   128
 71
     7
 72
     6
 73
     5
  0
VERTEX
  5
499
  8
0
 62
     9
 10
0.0
 20
0.0
 30
0.0
 70
   128
 71
     5
 72
     2
 73
     7
  0
VERTEX
  5
49A
  8
0
 62
     9
 10
0.0
 20
0.0
 30
0.0
 70
   128
 71
    10
 72
     9
 73
     8
  0
VERTEX
  5
49B
  8
0
 62
     9
 10
0.0
 20
0.0
 30
0.0
 70
   128
 71
     8
 72
     5
 73
    10
  0
VERTEX
  5
49C
  8
0
 62
     9
 10
0.0
 20
0.0
 30
0.0
 70
   128
 71
    12
 72
    11
 73
     8
  0
VERTEX
  5
49D
  8
0
 62
     9
 10
0.0
 20
0.0
 30
0.0
 70
   128
 71
    12
 72
    13
 73
    11
  0
VERTEX
  5
49E
  8
0
 62
     9
 10
0.0
 20
0.0
 30
0.0
 70
   128
 71
    16
 72
    15
 73
    14
  0
VERTEX
  5
49F
  8
0
 62
     9
 10
0.0
 20
0.0
 30
0.0
 70
   128
 71
    14
 72
    11
 73
    16
  0
VERTEX
  5
4A0
  8
0
 62
     9
 10
0.0
 20
0.0
 30
0.0
 70
   128
 71
    18
 72
    17
 73
     1
  0
VERTEX
  5
4A1
  8
0
 62
     9
 10
0.0
 20
0.0
 30
0.0
 70
   128
 71
     1
 72
    14
 73
    18
  0
VERTEX
  5
4A2
  8
0
 62
     9
 10
0.0
 20
0.0
 30
0.0
 70
   128
 71
    14
 72
    15
 73
    18
  0
VERTEX
  5
4A3
  8
0
 62
     9
 10
0.0
 20
0.0
 30
0.0
 70
   128
 71
    11
 72
    13
 73
    16
  0
VERTEX
  5
4A4
  8
0
 62
     9
 10
0.0
 20
0.0
 30
0.0
 70
   128
 71
     8
 72
     9
 73
    12
  0
VERTEX
  5
4A5
  8
0
 62
     9
 10
0.0
 20
0.0
 30
0.0
 70
   128
 71
     5
 72
     6
 73
    10
  0
VERTEX
  5
4A6
  8
0
 62
     9
 10
0.0
 20
0.0
 30
0.0
 70
   128
 71
     2
 72
     4
 73
     7
  0
VERTEX
  5
4A7
  8
0
 62
     9
 10
0.0
 20
0.0
 30
0.0
 70
   128
 71
     1
 72
    17
 73
     3
  0
SEQEND
  5
4A8
  8
0
 62
     9
  0
ENDBLK
  5
4AB
  8
0
  0
BLOCK
  8
0
  2
E3_NODE_27_
 70
     0
 10
0.0
 20
0.0
 30
0.0
  3
E3_NODE_27_
  1

  0
POLYLINE
  5
4AD
  8
0
 62
     9
 66
     1
 10
0.0
 20
0.0
 30
0.0
 70
    64
 71
     4
 72
     2
  0
VERTEX
  5
4AE
  8
0
 10
-17.37599945068359
 20
-74.62000274658203
 30
-13.55399990081787
 70
   192
  0
VERTEX
  5
4AF
  8
0
 10
-14.37600040435791
 20
-68.62000274658203
 30
-18.75
 70
   192
  0
VERTEX
  5
4B0
  8
0
 10
-11.37600040435791
 20
-74.62000274658203
 30
-23.94599914550781
 70
   192
  0
VERTEX
  5
4B1
  8
0
 10
-14.37600040435791
 20
-80.62000274658203
 30
-18.75
 70
   192
  0
VERTEX
  5
4B2
  8
0
 62
     9
 10
0.0
 20
0.0
 30
0.0
 70
   128
 71
     3
 72
     2
 73
     1
  0
VERTEX
  5
4B3
  8
0
 62
     9
 10
0.0
 20
0.0
 30
0.0
 70
   128
 71
     1
 72
     4
 73
     3
  0
SEQEND
  5
4B4
  8
0
 62
     9
  0
ENDBLK
  5
4B7
  8
0
  0
BLOCK
  8
0
  2
E3_NODE_28_
 70
     0
 10
0.0
 20
0.0
 30
0.0
  3
E3_NODE_28_
  1

  0
POLYLINE
  5
4B9
  8
0
 62
     9
 66
     1
 10
0.0
 20
0.0
 30
0.0
 70
    64
 71
    18
 72
    19
  0
VERTEX
  5
4BA
  8
0
 10
-11.37600040435791
 20
-74.62000274658203
 30
-23.94599914550781
 70
   192
  0
VERTEX
  5
4BB
  8
0
 10
12.89400005340576
 20
-78.5469970703125
 30
-8.244000434875488
 70
   192
  0
VERTEX
  5
4BC
  8
0
 10
9.673999786376953
 20
-80.54900360107422
 30
-4.828999996185303
 70
   192
  0
VERTEX
  5
4BD
  8
0
 10
14.44400024414062
 20
-74.62000274658203
 30
-9.038999557495117
 70
   192
  0
VERTEX
  5
4BE
  8
0
 10
14.42000007629395
 20
-75.11399841308594
 30
-9.029000282287598
 70
   192
  0
VERTEX
  5
4BF
  8
0
 10
8.357000350952148
 20
-77.62999725341797
 30
0.3680000007152557
 70
   192
  0
VERTEX
  5
4C0
  8
0
 10
8.388999938964844
 20
-74.56700134277344
 30
0.8069999814033508
 70
   192
  0
VERTEX
  5
4C1
  8
0
 10
8.256999969482422
 20
-78.7959976196289
 30
-0.7080000042915344
 70
   192
  0
VERTEX
  5
4C2
  8
0
 10
9.142000198364258
 20
-79.5719985961914
 30
-2.936000108718872
 70
   192
  0
VERTEX
  5
4C3
  8
0
 10
9.5649995803833
 20
-80.61699676513672
 30
-4.712999820709229
 70
   192
  0
VERTEX
  5
4C4
  8
0
 10
-17.37599945068359
 20
-74.62000274658203
 30
-13.55399990081787
 70
   192
  0
VERTEX
  5
4C5
  8
0
 10
-14.37600040435791
 20
-80.62000274658203
 30
-18.75
 70
   192
  0
VERTEX
  5
4C6
  8
0
 10
8.85200023651123
 20
-69.04399871826172
 30
-3.009000062942505
 70
   192
  0
VERTEX
  5
4C7
  8
0
 10
8.864999771118164
 20
-68.93199920654297
 30
-3.127000093460083
 70
   192
  0
VERTEX
  5
4C8
  8
0
 10
8.406000137329102
 20
-72.91000366210938
 30
1.044000029563904
 70
   192
  0
VERTEX
  5
4C9
  8
0
 10
-14.37600040435791
 20
-68.62000274658203
 30
-18.75
 70
   192
  0
VERTEX
  5
4CA
  8
0
 10
9.916999816894531
 20
-69.24500274658203
 30
-4.598999977111816
 70
   192
  0
VERTEX
  5
4CB
  8
0
 10
12.15100002288818
 20
-69.90799713134766
 30
-7.723999977111816
 70
   192
  0
VERTEX
  5
4CC
  8
0
 62
     9
 10
0.0
 20
0.0
 30
0.0
 70
   128
 71
     3
 72
     2
 73
     1
  0
VERTEX
  5
4CD
  8
0
 62
     9
 10
0.0
 20
0.0
 30
0.0
 70
   128
 71
     5
 72
     4
 73
     1
  0
VERTEX
  5
4CE
  8
0
 62
     9
 10
0.0
 20
0.0
 30
0.0
 70
   128
 71
     1
 72
     2
 73
     5
  0
VERTEX
  5
4CF
  8
0
 62
     9
 10
0.0
 20
0.0
 30
0.0
 70
   128
 71
     8
 72
     7
 73
     6
  0
VERTEX
  5
4D0
  8
0
 62
     9
 10
0.0
 20
0.0
 30
0.0
 70
   128
 71
     6
 72
     9
 73
     8
  0
VERTEX
  5
4D1
  8
0
 62
     9
 10
0.0
 20
0.0
 30
0.0
 70
   128
 71
     9
 72
    10
 73
     8
  0
VERTEX
  5
4D2
  8
0
 62
     9
 10
0.0
 20
0.0
 30
0.0
 70
   128
 71
     8
 72
    10
 73
    11
  0
VERTEX
  5
4D3
  8
0
 62
     9
 10
0.0
 20
0.0
 30
0.0
 70
   128
 71
    10
 72
     3
 73
    12
  0
VERTEX
  5
4D4
  8
0
 62
     9
 10
0.0
 20
0.0
 30
0.0
 70
   128
 71
    12
 72
    11
 73
    10
  0
VERTEX
  5
4D5
  8
0
 62
     9
 10
0.0
 20
0.0
 30
0.0
 70
   128
 71
    11
 72
     7
 73
     8
  0
VERTEX
  5
4D6
  8
0
 62
     9
 10
0.0
 20
0.0
 30
0.0
 70
   128
 71
    14
 72
    13
 73
    11
  0
VERTEX
  5
4D7
  8
0
 62
     9
 10
0.0
 20
0.0
 30
0.0
 70
   128
 71
    15
 72
     7
 73
    11
  0
VERTEX
  5
4D8
  8
0
 62
     9
 10
0.0
 20
0.0
 30
0.0
 70
   128
 71
    11
 72
    13
 73
    15
  0
VERTEX
  5
4D9
  8
0
 62
     9
 10
0.0
 20
0.0
 30
0.0
 70
   128
 71
    11
 72
    16
 73
    14
  0
VERTEX
  5
4DA
  8
0
 62
     9
 10
0.0
 20
0.0
 30
0.0
 70
   128
 71
    17
 72
    16
 73
     1
  0
VERTEX
  5
4DB
  8
0
 62
     9
 10
0.0
 20
0.0
 30
0.0
 70
   128
 71
     1
 72
    18
 73
    17
  0
VERTEX
  5
4DC
  8
0
 62
     9
 10
0.0
 20
0.0
 30
0.0
 70
   128
 71
     1
 72
     4
 73
    18
  0
VERTEX
  5
4DD
  8
0
 62
     9
 10
0.0
 20
0.0
 30
0.0
 70
   128
 71
    16
 72
    17
 73
    14
  0
VERTEX
  5
4DE
  8
0
 62
     9
 10
0.0
 20
0.0
 30
0.0
 70
   128
 71
     1
 72
    12
 73
     3
  0
SEQEND
  5
4DF
  8
0
 62
     9
  0
ENDBLK
  5
4E2
  8
0
  0
BLOCK
  8
0
  2
E3_NODE_29_
 70
     0
 10
0.0
 20
0.0
 30
0.0
  3
E3_NODE_29_
  1

  0
POLYLINE
  5
4E4
  8
0
 62
     9
 66
     1
 10
0.0
 20
0.0
 30
0.0
 70
    64
 71
    53
 72
    59
  0
VERTEX
  5
4E5
  8
0
 10
27.37299919128418
 20
-82.12000274658203
 30
-3.013000011444092
 70
   192
  0
VERTEX
  5
4E6
  8
0
 10
26.44899940490723
 20
-80.61699676513672
 30
-5.034999847412109
 70
   192
  0
VERTEX
  5
4E7
  8
0
 10
26.4950008392334
 20
-80.54900360107422
 30
-4.881999969482422
 70
   192
  0
VERTEX
  5
4E8
  8
0
 10
18.10000038146973
 20
-82.12000274658203
 30
-9.75
 70
   192
  0
VERTEX
  5
4E9
  8
0
 10
22.65299987792969
 20
-77.62999725341797
 30
-8.621999740600586
 70
   192
  0
VERTEX
  5
4EA
  8
0
 10
18.10000038146973
 20
-59.11999893188477
 30
-9.75
 70
   192
  0
VERTEX
  5
4EB
  8
0
 10
22.04299926757812
 20
-72.91000366210938
 30
-8.916999816894531
 70
   192
  0
VERTEX
  5
4EC
  8
0
 10
22.25699996948242
 20
-74.56700134277344
 30
-8.812999725341797
 70
   192
  0
VERTEX
  5
4ED
  8
0
 10
25.42499923706055
 20
-68.93199920654297
 30
-6.434000015258789
 70
   192
  0
VERTEX
  5
4EE
  8
0
 10
27.37299919128418
 20
-59.11999893188477
 30
-3.013000011444092
 70
   192
  0
VERTEX
  5
4EF
  8
0
 10
26.17499923706055
 20
-69.24500274658203
 30
-4.787000179290771
 70
   192
  0
VERTEX
  5
4F0
  8
0
 10
27.04800033569336
 20
-69.60900115966797
 30
-2.865999937057495
 70
   192
  0
VERTEX
  5
4F1
  8
0
 10
23.83099937438965
 20
-59.11999893188477
 30
7.888000011444092
 70
   192
  0
VERTEX
  5
4F2
  8
0
 10
23.29000091552734
 20
-71.61000061035156
 30
8.253999710083008
 70
   192
  0
VERTEX
  5
4F3
  8
0
 10
23.65399932861328
 20
-74.6729965209961
 30
8.006999969482422
 70
   192
  0
VERTEX
  5
4F4
  8
0
 10
18.10000038146973
 20
-59.11999893188477
 30
9.75
 70
   192
  0
VERTEX
  5
4F5
  8
0
 10
18.2859992980957
 20
-68.62300109863281
 30
9.748000144958496
 70
   192
  0
VERTEX
  5
4F6
  8
0
 10
12.36900043487549
 20
-59.11999893188477
 30
7.888000011444092
 70
   192
  0
VERTEX
  5
4F7
  8
0
 10
18.13100051879883
 20
-68.69100189208984
 30
9.711000442504883
 70
   192
  0
VERTEX
  5
4F8
  8
0
 10
13.5629997253418
 20
-70.69300079345703
 30
8.630000114440918
 70
   192
  0
VERTEX
  5
4F9
  8
0
 10
12.38199996948242
 20
-73.50399780273438
 30
7.86899995803833
 70
   192
  0
VERTEX
  5
4FA
  8
0
 10
27.76399993896484
 20
-69.90799713134766
 30
-1.289999961853027
 70
   192
  0
VERTEX
  5
4FB
  8
0
 10
27.84199905395508
 20
-78.5469970703125
 30
-0.386000007390976
 70
   192
  0
VERTEX
  5
4FC
  8
0
 10
23.85099983215332
 20
-76.33000183105469
 30
7.873000144958496
 70
   192
  0
VERTEX
  5
4FD
  8
0
 10
23.82900047302246
 20
-76.35299682617188
 30
7.882999897003174
 70
   192
  0
VERTEX
  5
4FE
  8
0
 10
27.08200073242188
 20
-79.677001953125
 30
-2.924999952316284
 70
   192
  0
VERTEX
  5
4FF
  8
0
 10
23.83099937438965
 20
-82.12000274658203
 30
7.888000011444092
 70
   192
  0
VERTEX
  5
500
  8
0
 10
23.82999992370605
 20
-76.15599822998047
 30
7.88700008392334
 70
   192
  0
VERTEX
  5
501
  8
0
 10
27.75600051879883
 20
-74.62000274658203
 30
1.353999972343445
 70
   192
  0
VERTEX
  5
502
  8
0
 10
27.75900077819824
 20
-75.11399841308594
 30
1.327999949455261
 70
   192
  0
VERTEX
  5
503
  8
0
 10
18.10000038146973
 20
-82.12000274658203
 30
9.75
 70
   192
  0
VERTEX
  5
504
  8
0
 10
18.20800018310547
 20
-79.99500274658203
 30
9.38599967956543
 70
   192
  0
VERTEX
  5
505
  8
0
 10
14.38500022888184
 20
-79.33200073242188
 30
9.015000343322754
 70
   192
  0
VERTEX
  5
506
  8
0
 10
20.01000022888184
 20
-80.30799865722656
 30
9.560999870300293
 70
   192
  0
VERTEX
  5
507
  8
0
 10
12.36900043487549
 20
-82.12000274658203
 30
7.888000011444092
 70
   192
  0
VERTEX
  5
508
  8
0
 10
8.357000350952148
 20
-77.62999725341797
 30
0.3680000007152557
 70
   192
  0
VERTEX
  5
509
  8
0
 10
9.142000198364258
 20
-79.5719985961914
 30
-2.936000108718872
 70
   192
  0
VERTEX
  5
50A
  8
0
 10
8.388999938964844
 20
-74.56700134277344
 30
0.8069999814033508
 70
   192
  0
VERTEX
  5
50B
  8
0
 10
12.10000038146973
 20
-74.62000274658203
 30
7.684999942779541
 70
   192
  0
VERTEX
  5
50C
  8
0
 10
12.11999988555908
 20
-74.1259994506836
 30
7.701000213623047
 70
   192
  0
VERTEX
  5
50D
  8
0
 10
8.406000137329102
 20
-72.91000366210938
 30
1.044000029563904
 70
   192
  0
VERTEX
  5
50E
  8
0
 10
12.39000034332275
 20
-75.21800231933594
 30
7.854000091552734
 70
   192
  0
VERTEX
  5
50F
  8
0
 10
8.82699966430664
 20
-59.11999893188477
 30
-3.013000011444092
 70
   192
  0
VERTEX
  5
510
  8
0
 10
8.85200023651123
 20
-69.04399871826172
 30
-3.009000062942505
 70
   192
  0
VERTEX
  5
511
  8
0
 10
12.15100002288818
 20
-69.90799713134766
 30
-7.723999977111816
 70
   192
  0
VERTEX
  5
512
  8
0
 10
9.916999816894531
 20
-69.24500274658203
 30
-4.598999977111816
 70
   192
  0
VERTEX
  5
513
  8
0
 10
14.42000007629395
 20
-75.11399841308594
 30
-9.029000282287598
 70
   192
  0
VERTEX
  5
514
  8
0
 10
14.44400024414062
 20
-74.62000274658203
 30
-9.038999557495117
 70
   192
  0
VERTEX
  5
515
  8
0
 10
12.89400005340576
 20
-78.5469970703125
 30
-8.244000434875488
 70
   192
  0
VERTEX
  5
516
  8
0
 10
8.82699966430664
 20
-82.12000274658203
 30
-3.013000011444092
 70
   192
  0
VERTEX
  5
517
  8
0
 10
9.5649995803833
 20
-80.61699676513672
 30
-4.712999820709229
 70
   192
  0
VERTEX
  5
518
  8
0
 10
9.673999786376953
 20
-80.54900360107422
 30
-4.828999996185303
 70
   192
  0
VERTEX
  5
519
  8
0
 10
8.864999771118164
 20
-68.93199920654297
 30
-3.127000093460083
 70
   192
  0
VERTEX
  5
51A
  8
0
 62
     9
 10
0.0
 20
0.0
 30
0.0
 70
   128
 71
     3
 72
     2
 73
     1
  0
VERTEX
  5
51B
  8
0
 62
     9
 10
0.0
 20
0.0
 30
0.0
 70
   128
 71
     2
 72
     5
 73
     4
  0
VERTEX
  5
51C
  8
0
 62
     9
 10
0.0
 20
0.0
 30
0.0
 70
   128
 71
     7
 72
     6
 73
     4
  0
VERTEX
  5
51D
  8
0
 62
     9
 10
0.0
 20
0.0
 30
0.0
 70
   128
 71
     4
 72
     8
 73
     7
  0
VERTEX
  5
51E
  8
0
 62
     9
 10
0.0
 20
0.0
 30
0.0
 70
   128
 71
     4
 72
     5
 73
     8
  0
VERTEX
  5
51F
  8
0
 62
     9
 10
0.0
 20
0.0
 30
0.0
 70
   128
 71
     7
 72
     9
 73
     6
  0
VERTEX
  5
520
  8
0
 62
     9
 10
0.0
 20
0.0
 30
0.0
 70
   128
 71
     9
 72
    11
 73
    10
  0
VERTEX
  5
521
  8
0
 62
     9
 10
0.0
 20
0.0
 30
0.0
 70
   128
 71
    11
 72
    12
 73
    10
  0
VERTEX
  5
522
  8
0
 62
     9
 10
0.0
 20
0.0
 30
0.0
 70
   128
 71
    10
 72
     6
 73
     9
  0
VERTEX
  5
523
  8
0
 62
     9
 10
0.0
 20
0.0
 30
0.0
 70
   128
 71
     4
 72
     1
 73
     2
  0
VERTEX
  5
524
  8
0
 62
     9
 10
0.0
 20
0.0
 30
0.0
 70
   128
 71
    15
 72
    14
 73
    13
  0
VERTEX
  5
525
  8
0
 62
     9
 10
0.0
 20
0.0
 30
0.0
 70
   128
 71
    17
 72
    16
 73
    13
  0
VERTEX
  5
526
  8
0
 62
     9
 10
0.0
 20
0.0
 30
0.0
 70
   128
 71
    13
 72
    14
 73
    17
  0
VERTEX
  5
527
  8
0
 62
     9
 10
0.0
 20
0.0
 30
0.0
 70
   128
 71
    17
 72
    19
 73
    18
  0
VERTEX
  5
528
  8
0
 62
     9
 10
0.0
 20
0.0
 30
0.0
 70
   128
 71
    19
 72
    20
 73
    18
  0
VERTEX
  5
529
  8
0
 62
     9
 10
0.0
 20
0.0
 30
0.0
 70
   128
 71
    20
 72
    21
 73
    18
  0
VERTEX
  5
52A
  8
0
 62
     9
 10
0.0
 20
0.0
 30
0.0
 70
   128
 71
    18
 72
    16
 73
    17
  0
VERTEX
  5
52B
  8
0
 62
     9
 10
0.0
 20
0.0
 30
0.0
 70
   128
 71
    22
 72
    13
 73
    10
  0
VERTEX
  5
52C
  8
0
 62
     9
 10
0.0
 20
0.0
 30
0.0
 70
   128
 71
    25
 72
    24
 73
    23
  0
VERTEX
  5
52D
  8
0
 62
     9
 10
0.0
 20
0.0
 30
0.0
 70
   128
 71
    23
 72
    26
 73
     1
  0
VERTEX
  5
52E
  8
0
 62
     9
 10
0.0
 20
0.0
 30
0.0
 70
   128
 71
     1
 72
    27
 73
    23
  0
VERTEX
  5
52F
  8
0
 62
     9
 10
0.0
 20
0.0
 30
0.0
 70
   128
 71
    29
 72
    28
 73
    13
  0
VERTEX
  5
530
  8
0
 62
     9
 10
0.0
 20
0.0
 30
0.0
 70
   128
 71
    30
 72
    24
 73
    28
  0
VERTEX
  5
531
  8
0
 62
     9
 10
0.0
 20
0.0
 30
0.0
 70
   128
 71
    30
 72
    23
 73
    24
  0
VERTEX
  5
532
  8
0
 62
     9
 10
0.0
 20
0.0
 30
0.0
 70
   128
 71
    28
 72
    29
 73
    30
  0
VERTEX
  5
533
  8
0
 62
     9
 10
0.0
 20
0.0
 30
0.0
 70
   128
 71
    13
 72
    22
 73
    29
  0
VERTEX
  5
534
  8
0
 62
     9
 10
0.0
 20
0.0
 30
0.0
 70
   128
 71
    23
 72
    27
 73
    25
  0
VERTEX
  5
535
  8
0
 62
     9
 10
0.0
 20
0.0
 30
0.0
 70
   128
 71
    33
 72
    32
 73
    31
  0
VERTEX
  5
536
  8
0
 62
     9
 10
0.0
 20
0.0
 30
0.0
 70
   128
 71
    34
 72
    27
 73
    31
  0
VERTEX
  5
537
  8
0
 62
     9
 10
0.0
 20
0.0
 30
0.0
 70
   128
 71
    31
 72
    32
 73
    34
  0
VERTEX
  5
538
  8
0
 62
     9
 10
0.0
 20
0.0
 30
0.0
 70
   128
 71
    31
 72
    35
 73
    33
  0
VERTEX
  5
539
  8
0
 62
     9
 10
0.0
 20
0.0
 30
0.0
 70
   128
 71
    34
 72
    25
 73
    27
  0
VERTEX
  5
53A
  8
0
 62
     9
 10
0.0
 20
0.0
 30
0.0
 70
   128
 71
    37
 72
    36
 73
    35
  0
VERTEX
  5
53B
  8
0
 62
     9
 10
0.0
 20
0.0
 30
0.0
 70
   128
 71
    40
 72
    39
 73
    38
  0
VERTEX
  5
53C
  8
0
 62
     9
 10
0.0
 20
0.0
 30
0.0
 70
   128
 71
    38
 72
    41
 73
    40
  0
VERTEX
  5
53D
  8
0
 62
     9
 10
0.0
 20
0.0
 30
0.0
 70
   128
 71
    39
 72
    36
 73
    38
  0
VERTEX
  5
53E
  8
0
 62
     9
 10
0.0
 20
0.0
 30
0.0
 70
   128
 71
    42
 72
    35
 73
    36
  0
VERTEX
  5
53F
  8
0
 62
     9
 10
0.0
 20
0.0
 30
0.0
 70
   128
 71
    36
 72
    39
 73
    42
  0
VERTEX
  5
540
  8
0
 62
     9
 10
0.0
 20
0.0
 30
0.0
 70
   128
 71
    41
 72
    21
 73
    40
  0
VERTEX
  5
541
  8
0
 62
     9
 10
0.0
 20
0.0
 30
0.0
 70
   128
 71
    44
 72
    43
 73
    18
  0
VERTEX
  5
542
  8
0
 62
     9
 10
0.0
 20
0.0
 30
0.0
 70
   128
 71
    18
 72
    41
 73
    44
  0
VERTEX
  5
543
  8
0
 62
     9
 10
0.0
 20
0.0
 30
0.0
 70
   128
 71
    18
 72
    21
 73
    41
  0
VERTEX
  5
544
  8
0
 62
     9
 10
0.0
 20
0.0
 30
0.0
 70
   128
 71
    46
 72
    45
 73
     6
  0
VERTEX
  5
545
  8
0
 62
     9
 10
0.0
 20
0.0
 30
0.0
 70
   128
 71
     6
 72
    43
 73
    46
  0
VERTEX
  5
546
  8
0
 62
     9
 10
0.0
 20
0.0
 30
0.0
 70
   128
 71
    48
 72
    47
 73
     4
  0
VERTEX
  5
547
  8
0
 62
     9
 10
0.0
 20
0.0
 30
0.0
 70
   128
 71
    47
 72
    49
 73
     4
  0
VERTEX
  5
548
  8
0
 62
     9
 10
0.0
 20
0.0
 30
0.0
 70
   128
 71
     4
 72
     6
 73
    48
  0
VERTEX
  5
549
  8
0
 62
     9
 10
0.0
 20
0.0
 30
0.0
 70
   128
 71
    51
 72
    50
 73
     4
  0
VERTEX
  5
54A
  8
0
 62
     9
 10
0.0
 20
0.0
 30
0.0
 70
   128
 71
     4
 72
    52
 73
    51
  0
VERTEX
  5
54B
  8
0
 62
     9
 10
0.0
 20
0.0
 30
0.0
 70
   128
 71
     4
 72
    49
 73
    52
  0
VERTEX
  5
54C
  8
0
 62
     9
 10
0.0
 20
0.0
 30
0.0
 70
   128
 71
     6
 72
    45
 73
    48
  0
VERTEX
  5
54D
  8
0
 62
     9
 10
0.0
 20
0.0
 30
0.0
 70
   128
 71
    51
 72
    37
 73
    50
  0
VERTEX
  5
54E
  8
0
 62
     9
 10
0.0
 20
0.0
 30
0.0
 70
   128
 71
    43
 72
    53
 73
    46
  0
VERTEX
  5
54F
  8
0
 62
     9
 10
0.0
 20
0.0
 30
0.0
 70
   128
 71
    43
 72
    44
 73
    53
  0
VERTEX
  5
550
  8
0
 62
     9
 10
0.0
 20
0.0
 30
0.0
 70
   128
 71
    35
 72
    50
 73
    37
  0
VERTEX
  5
551
  8
0
 62
     9
 10
0.0
 20
0.0
 30
0.0
 70
   128
 71
    35
 72
    42
 73
    33
  0
VERTEX
  5
552
  8
0
 62
     9
 10
0.0
 20
0.0
 30
0.0
 70
   128
 71
    10
 72
    12
 73
    22
  0
VERTEX
  5
553
  8
0
 62
     9
 10
0.0
 20
0.0
 30
0.0
 70
   128
 71
    13
 72
    28
 73
    15
  0
VERTEX
  5
554
  8
0
 62
     9
 10
0.0
 20
0.0
 30
0.0
 70
   128
 71
     1
 72
    26
 73
     3
  0
SEQEND
  5
555
  8
0
 62
     9
  0
ENDBLK
  5
558
  8
0
  0
BLOCK
  8
0
  2
E3_NODE_30_
 70
     0
 10
0.0
 20
0.0
 30
0.0
  3
E3_NODE_30_
  1

  0
POLYLINE
  5
55A
  8
0
 62
     9
 66
     1
 10
0.0
 20
0.0
 30
0.0
 70
    64
 71
     6
 72
     4
  0
VERTEX
  5
55B
  8
0
 10
18.10000038146973
 20
-82.12000274658203
 30
-9.75
 70
   192
  0
VERTEX
  5
55C
  8
0
 10
18.10000038146973
 20
-82.12000274658203
 30
9.75
 70
   192
  0
VERTEX
  5
55D
  8
0
 10
12.36900043487549
 20
-82.12000274658203
 30
7.888000011444092
 70
   192
  0
VERTEX
  5
55E
  8
0
 10
27.37299919128418
 20
-82.12000274658203
 30
-3.013000011444092
 70
   192
  0
VERTEX
  5
55F
  8
0
 10
23.83099937438965
 20
-82.12000274658203
 30
7.888000011444092
 70
   192
  0
VERTEX
  5
560
  8
0
 10
8.82699966430664
 20
-82.12000274658203
 30
-3.013000011444092
 70
   192
  0
VERTEX
  5
561
  8
0
 62
     9
 10
0.0
 20
0.0
 30
0.0
 70
   128
 71
     3
 72
     2
 73
     1
  0
VERTEX
  5
562
  8
0
 62
     9
 10
0.0
 20
0.0
 30
0.0
 70
   128
 71
     5
 72
     4
 73
     1
  0
VERTEX
  5
563
  8
0
 62
     9
 10
0.0
 20
0.0
 30
0.0
 70
   128
 71
     1
 72
     2
 73
     5
  0
VERTEX
  5
564
  8
0
 62
     9
 10
0.0
 20
0.0
 30
0.0
 70
   128
 71
     1
 72
     6
 73
     3
  0
SEQEND
  5
565
  8
0
 62
     9
  0
ENDBLK
  5
568
  8
0
  0
BLOCK
  8
0
  2
E3_NODE_31_
 70
     0
 10
0.0
 20
0.0
 30
0.0
  3
E3_NODE_31_
  1

  0
POLYLINE
  5
56A
  8
0
 62
     9
 66
     1
 10
0.0
 20
0.0
 30
0.0
 70
    64
 71
    18
 72
    19
  0
VERTEX
  5
56B
  8
0
 10
53.57600021362305
 20
-74.62000274658203
 30
-13.55399990081787
 70
   192
  0
VERTEX
  5
56C
  8
0
 10
27.08200073242188
 20
-79.677001953125
 30
-2.924999952316284
 70
   192
  0
VERTEX
  5
56D
  8
0
 10
26.4950008392334
 20
-80.54900360107422
 30
-4.881999969482422
 70
   192
  0
VERTEX
  5
56E
  8
0
 10
27.84199905395508
 20
-78.5469970703125
 30
-0.386000007390976
 70
   192
  0
VERTEX
  5
56F
  8
0
 10
27.75600051879883
 20
-74.62000274658203
 30
1.353999972343445
 70
   192
  0
VERTEX
  5
570
  8
0
 10
27.75900077819824
 20
-75.11399841308594
 30
1.327999949455261
 70
   192
  0
VERTEX
  5
571
  8
0
 10
22.65299987792969
 20
-77.62999725341797
 30
-8.621999740600586
 70
   192
  0
VERTEX
  5
572
  8
0
 10
22.25699996948242
 20
-74.56700134277344
 30
-8.812999725341797
 70
   192
  0
VERTEX
  5
573
  8
0
 10
23.63500022888184
 20
-78.7959976196289
 30
-8.170000076293945
 70
   192
  0
VERTEX
  5
574
  8
0
 10
26.44899940490723
 20
-80.61699676513672
 30
-5.034999847412109
 70
   192
  0
VERTEX
  5
575
  8
0
 10
47.57600021362305
 20
-74.62000274658203
 30
-23.94599914550781
 70
   192
  0
VERTEX
  5
576
  8
0
 10
50.57600021362305
 20
-80.62000274658203
 30
-18.75
 70
   192
  0
VERTEX
  5
577
  8
0
 10
22.04299926757812
 20
-72.91000366210938
 30
-8.916999816894531
 70
   192
  0
VERTEX
  5
578
  8
0
 10
25.42499923706055
 20
-68.93199920654297
 30
-6.434000015258789
 70
   192
  0
VERTEX
  5
579
  8
0
 10
50.57600021362305
 20
-68.62000274658203
 30
-18.75
 70
   192
  0
VERTEX
  5
57A
  8
0
 10
26.17499923706055
 20
-69.24500274658203
 30
-4.787000179290771
 70
   192
  0
VERTEX
  5
57B
  8
0
 10
27.04800033569336
 20
-69.60900115966797
 30
-2.865999937057495
 70
   192
  0
VERTEX
  5
57C
  8
0
 10
27.76399993896484
 20
-69.90799713134766
 30
-1.289999961853027
 70
   192
  0
VERTEX
  5
57D
  8
0
 62
     9
 10
0.0
 20
0.0
 30
0.0
 70
   128
 71
     3
 72
     2
 73
     1
  0
VERTEX
  5
57E
  8
0
 62
     9
 10
0.0
 20
0.0
 30
0.0
 70
   128
 71
     2
 72
     4
 73
     1
  0
VERTEX
  5
57F
  8
0
 62
     9
 10
0.0
 20
0.0
 30
0.0
 70
   128
 71
     6
 72
     5
 73
     1
  0
VERTEX
  5
580
  8
0
 62
     9
 10
0.0
 20
0.0
 30
0.0
 70
   128
 71
     1
 72
     4
 73
     6
  0
VERTEX
  5
581
  8
0
 62
     9
 10
0.0
 20
0.0
 30
0.0
 70
   128
 71
     9
 72
     8
 73
     7
  0
VERTEX
  5
582
  8
0
 62
     9
 10
0.0
 20
0.0
 30
0.0
 70
   128
 71
     7
 72
    10
 73
     9
  0
VERTEX
  5
583
  8
0
 62
     9
 10
0.0
 20
0.0
 30
0.0
 70
   128
 71
     9
 72
    10
 73
    11
  0
VERTEX
  5
584
  8
0
 62
     9
 10
0.0
 20
0.0
 30
0.0
 70
   128
 71
    10
 72
     3
 73
    12
  0
VERTEX
  5
585
  8
0
 62
     9
 10
0.0
 20
0.0
 30
0.0
 70
   128
 71
    12
 72
    11
 73
    10
  0
VERTEX
  5
586
  8
0
 62
     9
 10
0.0
 20
0.0
 30
0.0
 70
   128
 71
    11
 72
     8
 73
     9
  0
VERTEX
  5
587
  8
0
 62
     9
 10
0.0
 20
0.0
 30
0.0
 70
   128
 71
    14
 72
    13
 73
    11
  0
VERTEX
  5
588
  8
0
 62
     9
 10
0.0
 20
0.0
 30
0.0
 70
   128
 71
    13
 72
     8
 73
    11
  0
VERTEX
  5
589
  8
0
 62
     9
 10
0.0
 20
0.0
 30
0.0
 70
   128
 71
    11
 72
    15
 73
    14
  0
VERTEX
  5
58A
  8
0
 62
     9
 10
0.0
 20
0.0
 30
0.0
 70
   128
 71
    16
 72
    15
 73
     1
  0
VERTEX
  5
58B
  8
0
 62
     9
 10
0.0
 20
0.0
 30
0.0
 70
   128
 71
     1
 72
    17
 73
    16
  0
VERTEX
  5
58C
  8
0
 62
     9
 10
0.0
 20
0.0
 30
0.0
 70
   128
 71
     1
 72
    18
 73
    17
  0
VERTEX
  5
58D
  8
0
 62
     9
 10
0.0
 20
0.0
 30
0.0
 70
   128
 71
     1
 72
     5
 73
    18
  0
VERTEX
  5
58E
  8
0
 62
     9
 10
0.0
 20
0.0
 30
0.0
 70
   128
 71
    15
 72
    16
 73
    14
  0
VERTEX
  5
58F
  8
0
 62
     9
 10
0.0
 20
0.0
 30
0.0
 70
   128
 71
     1
 72
    12
 73
     3
  0
SEQEND
  5
590
  8
0
 62
     9
  0
ENDBLK
  5
593
  8
0
  0
BLOCK
  8
0
  2
E3_NODE_32_
 70
     0
 10
0.0
 20
0.0
 30
0.0
  3
E3_NODE_32_
  1

  0
POLYLINE
  5
595
  8
0
 62
     9
 66
     1
 10
0.0
 20
0.0
 30
0.0
 70
    64
 71
     4
 72
     2
  0
VERTEX
  5
596
  8
0
 10
47.57600021362305
 20
-74.62000274658203
 30
-23.94599914550781
 70
   192
  0
VERTEX
  5
597
  8
0
 10
50.57600021362305
 20
-68.62000274658203
 30
-18.75
 70
   192
  0
VERTEX
  5
598
  8
0
 10
53.57600021362305
 20
-74.62000274658203
 30
-13.55399990081787
 70
   192
  0
VERTEX
  5
599
  8
0
 10
50.57600021362305
 20
-80.62000274658203
 30
-18.75
 70
   192
  0
VERTEX
  5
59A
  8
0
 62
     9
 10
0.0
 20
0.0
 30
0.0
 70
   128
 71
     3
 72
     2
 73
     1
  0
VERTEX
  5
59B
  8
0
 62
     9
 10
0.0
 20
0.0
 30
0.0
 70
   128
 71
     1
 72
     4
 73
     3
  0
SEQEND
  5
59C
  8
0
 62
     9
  0
ENDBLK
  5
59F
  8
0
  0
BLOCK
  8
0
  2
E3_NODE_33_
 70
     0
 10
0.0
 20
0.0
 30
0.0
  3
E3_NODE_33_
  1

  0
POLYLINE
  5
5A1
  8
0
 62
     9
 66
     1
 10
0.0
 20
0.0
 30
0.0
 70
    64
 71
    19
 72
    19
  0
VERTEX
  5
5A2
  8
0
 10
12.10000038146973
 20
-74.62000274658203
 30
37.5
 70
   192
  0
VERTEX
  5
5A3
  8
0
 10
14.38500022888184
 20
-79.33200073242188
 30
9.015000343322754
 70
   192
  0
VERTEX
  5
5A4
  8
0
 10
18.20800018310547
 20
-79.99500274658203
 30
9.38599967956543
 70
   192
  0
VERTEX
  5
5A5
  8
0
 10
12.10000038146973
 20
-74.62000274658203
 30
7.684999942779541
 70
   192
  0
VERTEX
  5
5A6
  8
0
 10
12.39000034332275
 20
-75.21800231933594
 30
7.854000091552734
 70
   192
  0
VERTEX
  5
5A7
  8
0
 10
18.10000038146973
 20
-80.62000274658203
 30
37.5
 70
   192
  0
VERTEX
  5
5A8
  8
0
 10
23.82999992370605
 20
-76.15599822998047
 30
7.88700008392334
 70
   192
  0
VERTEX
  5
5A9
  8
0
 10
23.65399932861328
 20
-74.6729965209961
 30
8.006999969482422
 70
   192
  0
VERTEX
  5
5AA
  8
0
 10
23.82900047302246
 20
-76.35299682617188
 30
7.882999897003174
 70
   192
  0
VERTEX
  5
5AB
  8
0
 10
23.85099983215332
 20
-76.33000183105469
 30
7.873000144958496
 70
   192
  0
VERTEX
  5
5AC
  8
0
 10
20.01000022888184
 20
-80.30799865722656
 30
9.560999870300293
 70
   192
  0
VERTEX
  5
5AD
  8
0
 10
24.10000038146973
 20
-74.62000274658203
 30
37.5
 70
   192
  0
VERTEX
  5
5AE
  8
0
 10
23.29000091552734
 20
-71.61000061035156
 30
8.253999710083008
 70
   192
  0
VERTEX
  5
5AF
  8
0
 10
18.2859992980957
 20
-68.62300109863281
 30
9.748000144958496
 70
   192
  0
VERTEX
  5
5B0
  8
0
 10
18.10000038146973
 20
-68.62000274658203
 30
37.5
 70
   192
  0
VERTEX
  5
5B1
  8
0
 10
12.38199996948242
 20
-73.50399780273438
 30
7.86899995803833
 70
   192
  0
VERTEX
  5
5B2
  8
0
 10
12.11999988555908
 20
-74.1259994506836
 30
7.701000213623047
 70
   192
  0
VERTEX
  5
5B3
  8
0
 10
13.5629997253418
 20
-70.69300079345703
 30
8.630000114440918
 70
   192
  0
VERTEX
  5
5B4
  8
0
 10
18.13100051879883
 20
-68.69100189208984
 30
9.711000442504883
 70
   192
  0
VERTEX
  5
5B5
  8
0
 62
     9
 10
0.0
 20
0.0
 30
0.0
 70
   128
 71
     3
 72
     2
 73
     1
  0
VERTEX
  5
5B6
  8
0
 62
     9
 10
0.0
 20
0.0
 30
0.0
 70
   128
 71
     5
 72
     4
 73
     1
  0
VERTEX
  5
5B7
  8
0
 62
     9
 10
0.0
 20
0.0
 30
0.0
 70
   128
 71
     1
 72
     2
 73
     5
  0
VERTEX
  5
5B8
  8
0
 62
     9
 10
0.0
 20
0.0
 30
0.0
 70
   128
 71
     8
 72
     7
 73
     6
  0
VERTEX
  5
5B9
  8
0
 62
     9
 10
0.0
 20
0.0
 30
0.0
 70
   128
 71
    10
 72
     9
 73
     6
  0
VERTEX
  5
5BA
  8
0
 62
     9
 10
0.0
 20
0.0
 30
0.0
 70
   128
 71
     9
 72
    11
 73
     6
  0
VERTEX
  5
5BB
  8
0
 62
     9
 10
0.0
 20
0.0
 30
0.0
 70
   128
 71
     6
 72
     7
 73
    10
  0
VERTEX
  5
5BC
  8
0
 62
     9
 10
0.0
 20
0.0
 30
0.0
 70
   128
 71
    11
 72
     3
 73
     6
  0
VERTEX
  5
5BD
  8
0
 62
     9
 10
0.0
 20
0.0
 30
0.0
 70
   128
 71
    14
 72
    13
 73
    12
  0
VERTEX
  5
5BE
  8
0
 62
     9
 10
0.0
 20
0.0
 30
0.0
 70
   128
 71
    13
 72
     8
 73
    12
  0
VERTEX
  5
5BF
  8
0
 62
     9
 10
0.0
 20
0.0
 30
0.0
 70
   128
 71
    12
 72
    15
 73
    14
  0
VERTEX
  5
5C0
  8
0
 62
     9
 10
0.0
 20
0.0
 30
0.0
 70
   128
 71
    17
 72
    16
 73
     1
  0
VERTEX
  5
5C1
  8
0
 62
     9
 10
0.0
 20
0.0
 30
0.0
 70
   128
 71
    16
 72
    18
 73
     1
  0
VERTEX
  5
5C2
  8
0
 62
     9
 10
0.0
 20
0.0
 30
0.0
 70
   128
 71
    19
 72
    15
 73
     1
  0
VERTEX
  5
5C3
  8
0
 62
     9
 10
0.0
 20
0.0
 30
0.0
 70
   128
 71
     1
 72
    18
 73
    19
  0
VERTEX
  5
5C4
  8
0
 62
     9
 10
0.0
 20
0.0
 30
0.0
 70
   128
 71
     1
 72
     4
 73
    17
  0
VERTEX
  5
5C5
  8
0
 62
     9
 10
0.0
 20
0.0
 30
0.0
 70
   128
 71
    15
 72
    19
 73
    14
  0
VERTEX
  5
5C6
  8
0
 62
     9
 10
0.0
 20
0.0
 30
0.0
 70
   128
 71
     6
 72
    12
 73
     8
  0
VERTEX
  5
5C7
  8
0
 62
     9
 10
0.0
 20
0.0
 30
0.0
 70
   128
 71
     1
 72
     6
 73
     3
  0
SEQEND
  5
5C8
  8
0
 62
     9
  0
ENDBLK
  5
5CB
  8
0
  0
BLOCK
  8
0
  2
E3_NODE_34_
 70
     0
 10
0.0
 20
0.0
 30
0.0
  3
E3_NODE_34_
  1

  0
POLYLINE
  5
5CD
  8
0
 62
     9
 66
     1
 10
0.0
 20
0.0
 30
0.0
 70
    64
 71
     4
 72
     2
  0
VERTEX
  5
5CE
  8
0
 10
18.10000038146973
 20
-68.62000274658203
 30
37.5
 70
   192
  0
VERTEX
  5
5CF
  8
0
 10
12.10000038146973
 20
-74.62000274658203
 30
37.5
 70
   192
  0
VERTEX
  5
5D0
  8
0
 10
18.10000038146973
 20
-80.62000274658203
 30
37.5
 70
   192
  0
VERTEX
  5
5D1
  8
0
 10
24.10000038146973
 20
-74.62000274658203
 30
37.5
 70
   192
  0
VERTEX
  5
5D2
  8
0
 62
     9
 10
0.0
 20
0.0
 30
0.0
 70
   128
 71
     3
 72
     2
 73
     1
  0
VERTEX
  5
5D3
  8
0
 62
     9
 10
0.0
 20
0.0
 30
0.0
 70
   128
 71
     1
 72
     4
 73
     3
  0
SEQEND
  5
5D4
  8
0
 62
     9
  0
ENDBLK
  5
5D7
  8
0
  0
BLOCK
  8
0
  2
E3_NODE_35_
 70
     0
 10
0.0
 20
0.0
 30
0.0
  3
E3_NODE_35_
  1

  0
POLYLINE
  5
5D9
  8
0
 62
     9
 66
     1
 10
0.0
 20
0.0
 30
0.0
 70
    64
 71
     8
 72
     6
  0
VERTEX
  5
5DA
  8
0
 10
15.90999984741211
 20
15.90999984741211
 30
-190.0
 70
   192
  0
VERTEX
  5
5DB
  8
0
 10
0.0
 20
22.5
 30
-190.0
 70
   192
  0
VERTEX
  5
5DC
  8
0
 10
-15.90999984741211
 20
15.90999984741211
 30
-190.0
 70
   192
  0
VERTEX
  5
5DD
  8
0
 10
22.5
 20
0.0
 30
-190.0
 70
   192
  0
VERTEX
  5
5DE
  8
0
 10
-15.90999984741211
 20
-15.90999984741211
 30
-190.0
 70
   192
  0
VERTEX
  5
5DF
  8
0
 10
0.0
 20
-22.5
 30
-190.0
 70
   192
  0
VERTEX
  5
5E0
  8
0
 10
-22.5
 20
0.0
 30
-190.0
 70
   192
  0
VERTEX
  5
5E1
  8
0
 10
15.90999984741211
 20
-15.90999984741211
 30
-190.0
 70
   192
  0
VERTEX
  5
5E2
  8
0
 62
     9
 10
0.0
 20
0.0
 30
0.0
 70
   128
 71
     3
 72
     2
 73
     1
  0
VERTEX
  5
5E3
  8
0
 62
     9
 10
0.0
 20
0.0
 30
0.0
 70
   128
 71
     6
 72
     5
 73
     4
  0
VERTEX
  5
5E4
  8
0
 62
     9
 10
0.0
 20
0.0
 30
0.0
 70
   128
 71
     1
 72
     4
 73
     7
  0
VERTEX
  5
5E5
  8
0
 62
     9
 10
0.0
 20
0.0
 30
0.0
 70
   128
 71
     5
 72
     7
 73
     4
  0
VERTEX
  5
5E6
  8
0
 62
     9
 10
0.0
 20
0.0
 30
0.0
 70
   128
 71
     4
 72
     8
 73
     6
  0
VERTEX
  5
5E7
  8
0
 62
     9
 10
0.0
 20
0.0
 30
0.0
 70
   128
 71
     1
 72
     7
 73
     3
  0
SEQEND
  5
5E8
  8
0
 62
     9
  0
ENDBLK
  5
5EB
  8
0
  0
BLOCK
  8
0
  2
E3_NODE_36_
 70
     0
 10
0.0
 20
0.0
 30
0.0
  3
E3_NODE_36_
  1

  0
POLYLINE
  5
5ED
  8
0
 62
     9
 66
     1
 10
0.0
 20
0.0
 30
0.0
 70
    64
 71
    16
 72
    16
  0
VERTEX
  5
5EE
  8
0
 10
-15.90999984741211
 20
-15.90999984741211
 30
-190.0
 70
   192
  0
VERTEX
  5
5EF
  8
0
 10
-15.90999984741211
 20
-15.90999984741211
 30
-194.0
 70
   192
  0
VERTEX
  5
5F0
  8
0
 10
0.0
 20
-22.5
 30
-194.0
 70
   192
  0
VERTEX
  5
5F1
  8
0
 10
-22.5
 20
0.0
 30
-190.0
 70
   192
  0
VERTEX
  5
5F2
  8
0
 10
-22.5
 20
0.0
 30
-194.0
 70
   192
  0
VERTEX
  5
5F3
  8
0
 10
-15.90999984741211
 20
15.90999984741211
 30
-190.0
 70
   192
  0
VERTEX
  5
5F4
  8
0
 10
-15.90999984741211
 20
15.90999984741211
 30
-194.0
 70
   192
  0
VERTEX
  5
5F5
  8
0
 10
0.0
 20
22.5
 30
-190.0
 70
   192
  0
VERTEX
  5
5F6
  8
0
 10
0.0
 20
22.5
 30
-194.0
 70
   192
  0
VERTEX
  5
5F7
  8
0
 10
15.90999984741211
 20
15.90999984741211
 30
-194.0
 70
   192
  0
VERTEX
  5
5F8
  8
0
 10
22.5
 20
0.0
 30
-190.0
 70
   192
  0
VERTEX
  5
5F9
  8
0
 10
22.5
 20
0.0
 30
-194.0
 70
   192
  0
VERTEX
  5
5FA
  8
0
 10
15.90999984741211
 20
-15.90999984741211
 30
-190.0
 70
   192
  0
VERTEX
  5
5FB
  8
0
 10
15.90999984741211
 20
-15.90999984741211
 30
-194.0
 70
   192
  0
VERTEX
  5
5FC
  8
0
 10
0.0
 20
-22.5
 30
-190.0
 70
   192
  0
VERTEX
  5
5FD
  8
0
 10
15.90999984741211
 20
15.90999984741211
 30
-190.0
 70
   192
  0
VERTEX
  5
5FE
  8
0
 62
     9
 10
0.0
 20
0.0
 30
0.0
 70
   128
 71
     3
 72
     2
 73
     1
  0
VERTEX
  5
5FF
  8
0
 62
     9
 10
0.0
 20
0.0
 30
0.0
 70
   128
 71
     2
 72
     5
 73
     4
  0
VERTEX
  5
600
  8
0
 62
     9
 10
0.0
 20
0.0
 30
0.0
 70
   128
 71
     5
 72
     7
 73
     6
  0
VERTEX
  5
601
  8
0
 62
     9
 10
0.0
 20
0.0
 30
0.0
 70
   128
 71
     9
 72
     8
 73
     6
  0
VERTEX
  5
602
  8
0
 62
     9
 10
0.0
 20
0.0
 30
0.0
 70
   128
 71
     8
 72
     9
 73
    10
  0
VERTEX
  5
603
  8
0
 62
     9
 10
0.0
 20
0.0
 30
0.0
 70
   128
 71
    10
 72
    12
 73
    11
  0
VERTEX
  5
604
  8
0
 62
     9
 10
0.0
 20
0.0
 30
0.0
 70
   128
 71
    12
 72
    14
 73
    13
  0
VERTEX
  5
605
  8
0
 62
     9
 10
0.0
 20
0.0
 30
0.0
 70
   128
 71
    15
 72
    13
 73
    14
  0
VERTEX
  5
606
  8
0
 62
     9
 10
0.0
 20
0.0
 30
0.0
 70
   128
 71
    14
 72
     3
 73
    15
  0
VERTEX
  5
607
  8
0
 62
     9
 10
0.0
 20
0.0
 30
0.0
 70
   128
 71
    13
 72
    11
 73
    12
  0
VERTEX
  5
608
  8
0
 62
     9
 10
0.0
 20
0.0
 30
0.0
 70
   128
 71
    11
 72
    16
 73
    10
  0
VERTEX
  5
609
  8
0
 62
     9
 10
0.0
 20
0.0
 30
0.0
 70
   128
 71
    10
 72
    16
 73
     8
  0
VERTEX
  5
60A
  8
0
 62
     9
 10
0.0
 20
0.0
 30
0.0
 70
   128
 71
     6
 72
     7
 73
     9
  0
VERTEX
  5
60B
  8
0
 62
     9
 10
0.0
 20
0.0
 30
0.0
 70
   128
 71
     6
 72
     4
 73
     5
  0
VERTEX
  5
60C
  8
0
 62
     9
 10
0.0
 20
0.0
 30
0.0
 70
   128
 71
     4
 72
     1
 73
     2
  0
VERTEX
  5
60D
  8
0
 62
     9
 10
0.0
 20
0.0
 30
0.0
 70
   128
 71
     1
 72
    15
 73
     3
  0
SEQEND
  5
60E
  8
0
 62
     9
  0
ENDBLK
  5
611
  8
0
  0
BLOCK
  8
0
  2
E3_NODE_37_
 70
     0
 10
0.0
 20
0.0
 30
0.0
  3
E3_NODE_37_
  1

  0
POLYLINE
  5
613
  8
0
 62
     9
 66
     1
 10
0.0
 20
0.0
 30
0.0
 70
    64
 71
    17
 72
    17
  0
VERTEX
  5
614
  8
0
 10
9.406000137329102
 20
25.84199905395508
 30
-194.0
 70
   192
  0
VERTEX
  5
615
  8
0
 10
0.0
 20
22.5
 30
-194.0
 70
   192
  0
VERTEX
  5
616
  8
0
 10
15.90999984741211
 20
15.90999984741211
 30
-194.0
 70
   192
  0
VERTEX
  5
617
  8
0
 10
-9.406000137329102
 20
25.84199905395508
 30
-194.0
 70
   192
  0
VERTEX
  5
618
  8
0
 10
-23.81599998474121
 20
13.75
 30
-194.0
 70
   192
  0
VERTEX
  5
619
  8
0
 10
-15.90999984741211
 20
15.90999984741211
 30
-194.0
 70
   192
  0
VERTEX
  5
61A
  8
0
 10
-27.08200073242188
 20
-4.775000095367432
 30
-194.0
 70
   192
  0
VERTEX
  5
61B
  8
0
 10
-22.5
 20
0.0
 30
-194.0
 70
   192
  0
VERTEX
  5
61C
  8
0
 10
27.08200073242188
 20
-4.775000095367432
 30
-194.0
 70
   192
  0
VERTEX
  5
61D
  8
0
 10
22.5
 20
0.0
 30
-194.0
 70
   192
  0
VERTEX
  5
61E
  8
0
 10
15.90999984741211
 20
-15.90999984741211
 30
-194.0
 70
   192
  0
VERTEX
  5
61F
  8
0
 10
23.81599998474121
 20
13.75
 30
-194.0
 70
   192
  0
VERTEX
  5
620
  8
0
 10
-17.67700004577637
 20
-21.06599998474121
 30
-194.0
 70
   192
  0
VERTEX
  5
621
  8
0
 10
-15.90999984741211
 20
-15.90999984741211
 30
-194.0
 70
   192
  0
VERTEX
  5
622
  8
0
 10
17.67700004577637
 20
-21.06599998474121
 30
-194.0
 70
   192
  0
VERTEX
  5
623
  8
0
 10
0.0
 20
-22.5
 30
-194.0
 70
   192
  0
VERTEX
  5
624
  8
0
 10
0.0
 20
-27.5
 30
-194.0
 70
   192
  0
VERTEX
  5
625
  8
0
 62
     9
 10
0.0
 20
0.0
 30
0.0
 70
   128
 71
     3
 72
     2
 73
     1
  0
VERTEX
  5
626
  8
0
 62
     9
 10
0.0
 20
0.0
 30
0.0
 70
   128
 71
     2
 72
     4
 73
     1
  0
VERTEX
  5
627
  8
0
 62
     9
 10
0.0
 20
0.0
 30
0.0
 70
   128
 71
     6
 72
     5
 73
     4
  0
VERTEX
  5
628
  8
0
 62
     9
 10
0.0
 20
0.0
 30
0.0
 70
   128
 71
     4
 72
     2
 73
     6
  0
VERTEX
  5
629
  8
0
 62
     9
 10
0.0
 20
0.0
 30
0.0
 70
   128
 71
     8
 72
     7
 73
     5
  0
VERTEX
  5
62A
  8
0
 62
     9
 10
0.0
 20
0.0
 30
0.0
 70
   128
 71
    11
 72
    10
 73
     9
  0
VERTEX
  5
62B
  8
0
 62
     9
 10
0.0
 20
0.0
 30
0.0
 70
   128
 71
    10
 72
     3
 73
    12
  0
VERTEX
  5
62C
  8
0
 62
     9
 10
0.0
 20
0.0
 30
0.0
 70
   128
 71
     5
 72
     6
 73
     8
  0
VERTEX
  5
62D
  8
0
 62
     9
 10
0.0
 20
0.0
 30
0.0
 70
   128
 71
    14
 72
    13
 73
     7
  0
VERTEX
  5
62E
  8
0
 62
     9
 10
0.0
 20
0.0
 30
0.0
 70
   128
 71
    12
 72
     9
 73
    10
  0
VERTEX
  5
62F
  8
0
 62
     9
 10
0.0
 20
0.0
 30
0.0
 70
   128
 71
     7
 72
     8
 73
    14
  0
VERTEX
  5
630
  8
0
 62
     9
 10
0.0
 20
0.0
 30
0.0
 70
   128
 71
    16
 72
    11
 73
    15
  0
VERTEX
  5
631
  8
0
 62
     9
 10
0.0
 20
0.0
 30
0.0
 70
   128
 71
     1
 72
    12
 73
     3
  0
VERTEX
  5
632
  8
0
 62
     9
 10
0.0
 20
0.0
 30
0.0
 70
   128
 71
     9
 72
    15
 73
    11
  0
VERTEX
  5
633
  8
0
 62
     9
 10
0.0
 20
0.0
 30
0.0
 70
   128
 71
    16
 72
    17
 73
    13
  0
VERTEX
  5
634
  8
0
 62
     9
 10
0.0
 20
0.0
 30
0.0
 70
   128
 71
    13
 72
    14
 73
    16
  0
VERTEX
  5
635
  8
0
 62
     9
 10
0.0
 20
0.0
 30
0.0
 70
   128
 71
    15
 72
    17
 73
    16
  0
SEQEND
  5
636
  8
0
 62
     9
  0
ENDBLK
  5
639
  8
0
  0
BLOCK
  8
0
  2
E3_NODE_38_
 70
     0
 10
0.0
 20
0.0
 30
0.0
  3
E3_NODE_38_
  1

  0
POLYLINE
  5
63B
  8
0
 62
     9
 66
     1
 10
0.0
 20
0.0
 30
0.0
 70
    64
 71
    18
 72
    18
  0
VERTEX
  5
63C
  8
0
 10
-17.67700004577637
 20
-21.06599998474121
 30
-194.0
 70
   192
  0
VERTEX
  5
63D
  8
0
 10
-17.67700004577637
 20
-21.06599998474121
 30
-200.0
 70
   192
  0
VERTEX
  5
63E
  8
0
 10
0.0
 20
-27.5
 30
-200.0
 70
   192
  0
VERTEX
  5
63F
  8
0
 10
-27.08200073242188
 20
-4.775000095367432
 30
-194.0
 70
   192
  0
VERTEX
  5
640
  8
0
 10
-27.08200073242188
 20
-4.775000095367432
 30
-200.0
 70
   192
  0
VERTEX
  5
641
  8
0
 10
-23.81599998474121
 20
13.75
 30
-194.0
 70
   192
  0
VERTEX
  5
642
  8
0
 10
-23.81599998474121
 20
13.75
 30
-200.0
 70
   192
  0
VERTEX
  5
643
  8
0
 10
-9.406000137329102
 20
25.84199905395508
 30
-194.0
 70
   192
  0
VERTEX
  5
644
  8
0
 10
-9.406000137329102
 20
25.84199905395508
 30
-200.0
 70
   192
  0
VERTEX
  5
645
  8
0
 10
9.406000137329102
 20
25.84199905395508
 30
-194.0
 70
   192
  0
VERTEX
  5
646
  8
0
 10
9.406000137329102
 20
25.84199905395508
 30
-200.0
 70
   192
  0
VERTEX
  5
647
  8
0
 10
23.81599998474121
 20
13.75
 30
-194.0
 70
   192
  0
VERTEX
  5
648
  8
0
 10
23.81599998474121
 20
13.75
 30
-200.0
 70
   192
  0
VERTEX
  5
649
  8
0
 10
27.08200073242188
 20
-4.775000095367432
 30
-194.0
 70
   192
  0
VERTEX
  5
64A
  8
0
 10
27.08200073242188
 20
-4.775000095367432
 30
-200.0
 70
   192
  0
VERTEX
  5
64B
  8
0
 10
17.67700004577637
 20
-21.06599998474121
 30
-194.0
 70
   192
  0
VERTEX
  5
64C
  8
0
 10
17.67700004577637
 20
-21.06599998474121
 30
-200.0
 70
   192
  0
VERTEX
  5
64D
  8
0
 10
0.0
 20
-27.5
 30
-194.0
 70
   192
  0
VERTEX
  5
64E
  8
0
 62
     9
 10
0.0
 20
0.0
 30
0.0
 70
   128
 71
     3
 72
     2
 73
     1
  0
VERTEX
  5
64F
  8
0
 62
     9
 10
0.0
 20
0.0
 30
0.0
 70
   128
 71
     2
 72
     5
 73
     4
  0
VERTEX
  5
650
  8
0
 62
     9
 10
0.0
 20
0.0
 30
0.0
 70
   128
 71
     5
 72
     7
 73
     6
  0
VERTEX
  5
651
  8
0
 62
     9
 10
0.0
 20
0.0
 30
0.0
 70
   128
 71
     7
 72
     9
 73
     8
  0
VERTEX
  5
652
  8
0
 62
     9
 10
0.0
 20
0.0
 30
0.0
 70
   128
 71
     9
 72
    11
 73
    10
  0
VERTEX
  5
653
  8
0
 62
     9
 10
0.0
 20
0.0
 30
0.0
 70
   128
 71
    11
 72
    13
 73
    12
  0
VERTEX
  5
654
  8
0
 62
     9
 10
0.0
 20
0.0
 30
0.0
 70
   128
 71
    13
 72
    15
 73
    14
  0
VERTEX
  5
655
  8
0
 62
     9
 10
0.0
 20
0.0
 30
0.0
 70
   128
 71
    15
 72
    17
 73
    16
  0
VERTEX
  5
656
  8
0
 62
     9
 10
0.0
 20
0.0
 30
0.0
 70
   128
 71
    18
 72
    16
 73
    17
  0
VERTEX
  5
657
  8
0
 62
     9
 10
0.0
 20
0.0
 30
0.0
 70
   128
 71
    17
 72
     3
 73
    18
  0
VERTEX
  5
658
  8
0
 62
     9
 10
0.0
 20
0.0
 30
0.0
 70
   128
 71
    16
 72
    14
 73
    15
  0
VERTEX
  5
659
  8
0
 62
     9
 10
0.0
 20
0.0
 30
0.0
 70
   128
 71
    14
 72
    12
 73
    13
  0
VERTEX
  5
65A
  8
0
 62
     9
 10
0.0
 20
0.0
 30
0.0
 70
   128
 71
    12
 72
    10
 73
    11
  0
VERTEX
  5
65B
  8
0
 62
     9
 10
0.0
 20
0.0
 30
0.0
 70
   128
 71
    10
 72
     8
 73
     9
  0
VERTEX
  5
65C
  8
0
 62
     9
 10
0.0
 20
0.0
 30
0.0
 70
   128
 71
     8
 72
     6
 73
     7
  0
VERTEX
  5
65D
  8
0
 62
     9
 10
0.0
 20
0.0
 30
0.0
 70
   128
 71
     6
 72
     4
 73
     5
  0
VERTEX
  5
65E
  8
0
 62
     9
 10
0.0
 20
0.0
 30
0.0
 70
   128
 71
     4
 72
     1
 73
     2
  0
VERTEX
  5
65F
  8
0
 62
     9
 10
0.0
 20
0.0
 30
0.0
 70
   128
 71
     1
 72
    18
 73
     3
  0
SEQEND
  5
660
  8
0
 62
     9
  0
ENDBLK
  5
663
  8
0
  0
BLOCK
  8
0
  2
E3_NODE_39_
 70
     0
 10
0.0
 20
0.0
 30
0.0
  3
E3_NODE_39_
  1

  0
POLYLINE
  5
665
  8
0
 62
     9
 66
     1
 10
0.0
 20
0.0
 30
0.0
 70
    64
 71
     9
 72
     7
  0
VERTEX
  5
666
  8
0
 10
17.67700004577637
 20
-21.06599998474121
 30
-200.0
 70
   192
  0
VERTEX
  5
667
  8
0
 10
-17.67700004577637
 20
-21.06599998474121
 30
-200.0
 70
   192
  0
VERTEX
  5
668
  8
0
 10
-27.08200073242188
 20
-4.775000095367432
 30
-200.0
 70
   192
  0
VERTEX
  5
669
  8
0
 10
-23.81599998474121
 20
13.75
 30
-200.0
 70
   192
  0
VERTEX
  5
66A
  8
0
 10
9.406000137329102
 20
25.84199905395508
 30
-200.0
 70
   192
  0
VERTEX
  5
66B
  8
0
 10
23.81599998474121
 20
13.75
 30
-200.0
 70
   192
  0
VERTEX
  5
66C
  8
0
 10
0.0
 20
-27.5
 30
-200.0
 70
   192
  0
VERTEX
  5
66D
  8
0
 10
-9.406000137329102
 20
25.84199905395508
 30
-200.0
 70
   192
  0
VERTEX
  5
66E
  8
0
 10
27.08200073242188
 20
-4.775000095367432
 30
-200.0
 70
   192
  0
VERTEX
  5
66F
  8
0
 62
     9
 10
0.0
 20
0.0
 30
0.0
 70
   128
 71
     3
 72
     2
 73
     1
  0
VERTEX
  5
670
  8
0
 62
     9
 10
0.0
 20
0.0
 30
0.0
 70
   128
 71
     6
 72
     5
 73
     4
  0
VERTEX
  5
671
  8
0
 62
     9
 10
0.0
 20
0.0
 30
0.0
 70
   128
 71
     2
 72
     7
 73
     1
  0
VERTEX
  5
672
  8
0
 62
     9
 10
0.0
 20
0.0
 30
0.0
 70
   128
 71
     5
 72
     8
 73
     4
  0
VERTEX
  5
673
  8
0
 62
     9
 10
0.0
 20
0.0
 30
0.0
 70
   128
 71
     1
 72
     9
 73
     4
  0
VERTEX
  5
674
  8
0
 62
     9
 10
0.0
 20
0.0
 30
0.0
 70
   128
 71
     1
 72
     4
 73
     3
  0
VERTEX
  5
675
  8
0
 62
     9
 10
0.0
 20
0.0
 30
0.0
 70
   128
 71
     4
 72
     9
 73
     6
  0
SEQEND
  5
676
  8
0
 62
     9
  0
ENDBLK
  5
679
  8
0
  0
BLOCK
  8
0
  2
E3_NODE_40_
 70
     0
 10
0.0
 20
0.0
 30
0.0
  3
E3_NODE_40_
  1

  0
POLYLINE
  5
67B
  8
0
 62
     9
 66
     1
 10
0.0
 20
0.0
 30
0.0
 70
    64
 71
    15
 72
    15
  0
VERTEX
  5
67C
  8
0
 10
14.07299995422363
 20
11.22299957275391
 30
28.0
 70
   192
  0
VERTEX
  5
67D
  8
0
 10
14.07299995422363
 20
11.22299957275391
 30
-59.0
 70
   192
  0
VERTEX
  5
67E
  8
0
 10
0.0
 20
18.0
 30
-59.0
 70
   192
  0
VERTEX
  5
67F
  8
0
 10
17.54899978637695
 20
-4.005000114440918
 30
28.0
 70
   192
  0
VERTEX
  5
680
  8
0
 10
17.54899978637695
 20
-4.005000114440918
 30
-59.0
 70
   192
  0
VERTEX
  5
681
  8
0
 10
7.809999942779541
 20
-16.21699905395508
 30
28.0
 70
   192
  0
VERTEX
  5
682
  8
0
 10
7.809999942779541
 20
-16.21699905395508
 30
-59.0
 70
   192
  0
VERTEX
  5
683
  8
0
 10
-7.809999942779541
 20
-16.21699905395508
 30
-59.0
 70
   192
  0
VERTEX
  5
684
  8
0
 10
0.0
 20
-18.0
 30
28.0
 70
   192
  0
VERTEX
  5
685
  8
0
 10
-17.54899978637695
 20
-4.005000114440918
 30
28.0
 70
   192
  0
VERTEX
  5
686
  8
0
 10
-17.54899978637695
 20
-4.005000114440918
 30
-59.0
 70
   192
  0
VERTEX
  5
687
  8
0
 10
-14.07299995422363
 20
11.22299957275391
 30
28.0
 70
   192
  0
VERTEX
  5
688
  8
0
 10
-14.07299995422363
 20
11.22299957275391
 30
-59.0
 70
   192
  0
VERTEX
  5
689
  8
0
 10
0.0
 20
18.0
 30
28.0
 70
   192
  0
VERTEX
  5
68A
  8
0
 10
-7.809999942779541
 20
-16.21699905395508
 30
28.0
 70
   192
  0
VERTEX
  5
68B
  8
0
 62
     9
 10
0.0
 20
0.0
 30
0.0
 70
   128
 71
     3
 72
     2
 73
     1
  0
VERTEX
  5
68C
  8
0
 62
     9
 10
0.0
 20
0.0
 30
0.0
 70
   128
 71
     2
 72
     5
 73
     4
  0
VERTEX
  5
68D
  8
0
 62
     9
 10
0.0
 20
0.0
 30
0.0
 70
   128
 71
     5
 72
     7
 73
     6
  0
VERTEX
  5
68E
  8
0
 62
     9
 10
0.0
 20
0.0
 30
0.0
 70
   128
 71
     9
 72
     7
 73
     8
  0
VERTEX
  5
68F
  8
0
 62
     9
 10
0.0
 20
0.0
 30
0.0
 70
   128
 71
     9
 72
     6
 73
     7
  0
VERTEX
  5
690
  8
0
 62
     9
 10
0.0
 20
0.0
 30
0.0
 70
   128
 71
     8
 72
    11
 73
    10
  0
VERTEX
  5
691
  8
0
 62
     9
 10
0.0
 20
0.0
 30
0.0
 70
   128
 71
    11
 72
    13
 73
    12
  0
VERTEX
  5
692
  8
0
 62
     9
 10
0.0
 20
0.0
 30
0.0
 70
   128
 71
    13
 72
     3
 73
    14
  0
VERTEX
  5
693
  8
0
 62
     9
 10
0.0
 20
0.0
 30
0.0
 70
   128
 71
    14
 72
    12
 73
    13
  0
VERTEX
  5
694
  8
0
 62
     9
 10
0.0
 20
0.0
 30
0.0
 70
   128
 71
    12
 72
    10
 73
    11
  0
VERTEX
  5
695
  8
0
 62
     9
 10
0.0
 20
0.0
 30
0.0
 70
   128
 71
    10
 72
    15
 73
     8
  0
VERTEX
  5
696
  8
0
 62
     9
 10
0.0
 20
0.0
 30
0.0
 70
   128
 71
     8
 72
    15
 73
     9
  0
VERTEX
  5
697
  8
0
 62
     9
 10
0.0
 20
0.0
 30
0.0
 70
   128
 71
     6
 72
     4
 73
     5
  0
VERTEX
  5
698
  8
0
 62
     9
 10
0.0
 20
0.0
 30
0.0
 70
   128
 71
     4
 72
     1
 73
     2
  0
VERTEX
  5
699
  8
0
 62
     9
 10
0.0
 20
0.0
 30
0.0
 70
   128
 71
     1
 72
    14
 73
     3
  0
SEQEND
  5
69A
  8
0
 62
     9
  0
ENDBLK
  5
69D
  8
0
  0
BLOCK
  8
0
  2
E3_NODE_41_
 70
     0
 10
0.0
 20
0.0
 30
0.0
  3
E3_NODE_41_
  1

  0
POLYLINE
  5
69F
  8
0
 62
     9
 66
     1
 10
0.0
 20
0.0
 30
0.0
 70
    64
 71
     8
 72
     6
  0
VERTEX
  5
6A0
  8
0
 10
0.0
 20
18.0
 30
28.0
 70
   192
  0
VERTEX
  5
6A1
  8
0
 10
7.809999942779541
 20
-16.21699905395508
 30
28.0
 70
   192
  0
VERTEX
  5
6A2
  8
0
 10
17.54899978637695
 20
-4.005000114440918
 30
28.0
 70
   192
  0
VERTEX
  5
6A3
  8
0
 10
-7.809999942779541
 20
-16.21699905395508
 30
28.0
 70
   192
  0
VERTEX
  5
6A4
  8
0
 10
-14.07299995422363
 20
11.22299957275391
 30
28.0
 70
   192
  0
VERTEX
  5
6A5
  8
0
 10
0.0
 20
-18.0
 30
28.0
 70
   192
  0
VERTEX
  5
6A6
  8
0
 10
-17.54899978637695
 20
-4.005000114440918
 30
28.0
 70
   192
  0
VERTEX
  5
6A7
  8
0
 10
14.07299995422363
 20
11.22299957275391
 30
28.0
 70
   192
  0
VERTEX
  5
6A8
  8
0
 62
     9
 10
0.0
 20
0.0
 30
0.0
 70
   128
 71
     3
 72
     2
 73
     1
  0
VERTEX
  5
6A9
  8
0
 62
     9
 10
0.0
 20
0.0
 30
0.0
 70
   128
 71
     5
 72
     1
 73
     4
  0
VERTEX
  5
6AA
  8
0
 62
     9
 10
0.0
 20
0.0
 30
0.0
 70
   128
 71
     2
 72
     6
 73
     1
  0
VERTEX
  5
6AB
  8
0
 62
     9
 10
0.0
 20
0.0
 30
0.0
 70
   128
 71
     4
 72
     7
 73
     5
  0
VERTEX
  5
6AC
  8
0
 62
     9
 10
0.0
 20
0.0
 30
0.0
 70
   128
 71
     1
 72
     6
 73
     4
  0
VERTEX
  5
6AD
  8
0
 62
     9
 10
0.0
 20
0.0
 30
0.0
 70
   128
 71
     1
 72
     8
 73
     3
  0
SEQEND
  5
6AE
  8
0
 62
     9
  0
ENDBLK
  5
6B1
  8
0
  0
BLOCK
  8
0
  2
E3_NODE_42_
 70
     0
 10
0.0
 20
0.0
 30
0.0
  3
E3_NODE_42_
  1

  0
POLYLINE
  5
6B3
  8
0
 62
     9
 66
     1
 10
0.0
 20
0.0
 30
0.0
 70
    64
 71
    16
 72
    16
  0
VERTEX
  5
6B4
  8
0
 10
11.22299957275391
 20
-14.07299995422363
 30
-59.0
 70
   192
  0
VERTEX
  5
6B5
  8
0
 10
11.22299957275391
 20
-14.07299995422363
 30
-196.5
 70
   192
  0
VERTEX
  5
6B6
  8
0
 10
18.0
 20
0.0
 30
-196.5
 70
   192
  0
VERTEX
  5
6B7
  8
0
 10
-4.005000114440918
 20
-17.54899978637695
 30
-59.0
 70
   192
  0
VERTEX
  5
6B8
  8
0
 10
-4.005000114440918
 20
-17.54899978637695
 30
-196.5
 70
   192
  0
VERTEX
  5
6B9
  8
0
 10
-16.21699905395508
 20
-7.809999942779541
 30
-59.0
 70
   192
  0
VERTEX
  5
6BA
  8
0
 10
-16.21699905395508
 20
-7.809999942779541
 30
-196.5
 70
   192
  0
VERTEX
  5
6BB
  8
0
 10
-16.21699905395508
 20
7.809999942779541
 30
-196.5
 70
   192
  0
VERTEX
  5
6BC
  8
0
 10
-18.0
 20
0.0
 30
-196.5
 70
   192
  0
VERTEX
  5
6BD
  8
0
 10
-18.0
 20
0.0
 30
-59.0
 70
   192
  0
VERTEX
  5
6BE
  8
0
 10
-4.005000114440918
 20
17.54899978637695
 30
-59.0
 70
   192
  0
VERTEX
  5
6BF
  8
0
 10
-4.005000114440918
 20
17.54899978637695
 30
-196.5
 70
   192
  0
VERTEX
  5
6C0
  8
0
 10
11.22299957275391
 20
14.07299995422363
 30
-59.0
 70
   192
  0
VERTEX
  5
6C1
  8
0
 10
11.22299957275391
 20
14.07299995422363
 30
-196.5
 70
   192
  0
VERTEX
  5
6C2
  8
0
 10
18.0
 20
0.0
 30
-59.0
 70
   192
  0
VERTEX
  5
6C3
  8
0
 10
-16.21699905395508
 20
7.809999942779541
 30
-59.0
 70
   192
  0
VERTEX
  5
6C4
  8
0
 62
     9
 10
0.0
 20
0.0
 30
0.0
 70
   128
 71
     3
 72
     2
 73
     1
  0
VERTEX
  5
6C5
  8
0
 62
     9
 10
0.0
 20
0.0
 30
0.0
 70
   128
 71
     2
 72
     5
 73
     4
  0
VERTEX
  5
6C6
  8
0
 62
     9
 10
0.0
 20
0.0
 30
0.0
 70
   128
 71
     5
 72
     7
 73
     6
  0
VERTEX
  5
6C7
  8
0
 62
     9
 10
0.0
 20
0.0
 30
0.0
 70
   128
 71
    10
 72
     9
 73
     8
  0
VERTEX
  5
6C8
  8
0
 62
     9
 10
0.0
 20
0.0
 30
0.0
 70
   128
 71
     9
 72
    10
 73
     6
  0
VERTEX
  5
6C9
  8
0
 62
     9
 10
0.0
 20
0.0
 30
0.0
 70
   128
 71
     6
 72
     7
 73
     9
  0
VERTEX
  5
6CA
  8
0
 62
     9
 10
0.0
 20
0.0
 30
0.0
 70
   128
 71
     8
 72
    12
 73
    11
  0
VERTEX
  5
6CB
  8
0
 62
     9
 10
0.0
 20
0.0
 30
0.0
 70
   128
 71
    12
 72
    14
 73
    13
  0
VERTEX
  5
6CC
  8
0
 62
     9
 10
0.0
 20
0.0
 30
0.0
 70
   128
 71
    14
 72
     3
 73
    15
  0
VERTEX
  5
6CD
  8
0
 62
     9
 10
0.0
 20
0.0
 30
0.0
 70
   128
 71
    15
 72
    13
 73
    14
  0
VERTEX
  5
6CE
  8
0
 62
     9
 10
0.0
 20
0.0
 30
0.0
 70
   128
 71
    13
 72
    11
 73
    12
  0
VERTEX
  5
6CF
  8
0
 62
     9
 10
0.0
 20
0.0
 30
0.0
 70
   128
 71
    11
 72
    16
 73
     8
  0
VERTEX
  5
6D0
  8
0
 62
     9
 10
0.0
 20
0.0
 30
0.0
 70
   128
 71
     8
 72
    16
 73
    10
  0
VERTEX
  5
6D1
  8
0
 62
     9
 10
0.0
 20
0.0
 30
0.0
 70
   128
 71
     6
 72
     4
 73
     5
  0
VERTEX
  5
6D2
  8
0
 62
     9
 10
0.0
 20
0.0
 30
0.0
 70
   128
 71
     4
 72
     1
 73
     2
  0
VERTEX
  5
6D3
  8
0
 62
     9
 10
0.0
 20
0.0
 30
0.0
 70
   128
 71
     1
 72
    15
 73
     3
  0
SEQEND
  5
6D4
  8
0
 62
     9
  0
ENDBLK
  5
6D7
  8
0
  0
BLOCK
  8
0
  2
E3_NODE_43_
 70
     0
 10
0.0
 20
0.0
 30
0.0
  3
E3_NODE_43_
  1

  0
POLYLINE
  5
6D9
  8
0
 62
     9
 66
     1
 10
0.0
 20
0.0
 30
0.0
 70
    64
 71
     8
 72
     6
  0
VERTEX
  5
6DA
  8
0
 10
18.0
 20
0.0
 30
-59.0
 70
   192
  0
VERTEX
  5
6DB
  8
0
 10
-16.21699905395508
 20
-7.809999942779541
 30
-59.0
 70
   192
  0
VERTEX
  5
6DC
  8
0
 10
-4.005000114440918
 20
-17.54899978637695
 30
-59.0
 70
   192
  0
VERTEX
  5
6DD
  8
0
 10
11.22299957275391
 20
14.07299995422363
 30
-59.0
 70
   192
  0
VERTEX
  5
6DE
  8
0
 10
-4.005000114440918
 20
17.54899978637695
 30
-59.0
 70
   192
  0
VERTEX
  5
6DF
  8
0
 10
-18.0
 20
0.0
 30
-59.0
 70
   192
  0
VERTEX
  5
6E0
  8
0
 10
-16.21699905395508
 20
7.809999942779541
 30
-59.0
 70
   192
  0
VERTEX
  5
6E1
  8
0
 10
11.22299957275391
 20
-14.07299995422363
 30
-59.0
 70
   192
  0
VERTEX
  5
6E2
  8
0
 62
     9
 10
0.0
 20
0.0
 30
0.0
 70
   128
 71
     3
 72
     2
 73
     1
  0
VERTEX
  5
6E3
  8
0
 62
     9
 10
0.0
 20
0.0
 30
0.0
 70
   128
 71
     5
 72
     4
 73
     1
  0
VERTEX
  5
6E4
  8
0
 62
     9
 10
0.0
 20
0.0
 30
0.0
 70
   128
 71
     2
 72
     6
 73
     1
  0
VERTEX
  5
6E5
  8
0
 62
     9
 10
0.0
 20
0.0
 30
0.0
 70
   128
 71
     1
 72
     7
 73
     5
  0
VERTEX
  5
6E6
  8
0
 62
     9
 10
0.0
 20
0.0
 30
0.0
 70
   128
 71
     1
 72
     6
 73
     7
  0
VERTEX
  5
6E7
  8
0
 62
     9
 10
0.0
 20
0.0
 30
0.0
 70
   128
 71
     1
 72
     8
 73
     3
  0
SEQEND
  5
6E8
  8
0
 62
     9
  0
ENDBLK
  5
6EB
  8
0
  0
ENDSEC
  0
SECTION
  2
ENTITIES
  0
INSERT
  5
4C
  8
LAYER_1
  2
E3_NODE
 10
0.0
 20
0.0
 30
0.0
  0
INSERT
  5
73
  8
LAYER_1
  2
E3_NODE_1_
 10
0.0
 20
0.0
 30
0.0
  0
INSERT
  5
87
  8
LAYER_1
  2
E3_NODE_2_
 10
0.0
 20
0.0
 30
0.0
  0
INSERT
  5
93
  8
LAYER_1
  2
E3_NODE_3_
 10
0.0
 20
0.0
 30
0.0
  0
INSERT
  5
BE
  8
LAYER_1
  2
E3_NODE_4_
 10
0.0
 20
0.0
 30
0.0
  0
INSERT
  5
134
  8
LAYER_1
  2
E3_NODE_5_
 10
0.0
 20
0.0
 30
0.0
  0
INSERT
  5
144
  8
LAYER_1
  2
E3_NODE_6_
 10
0.0
 20
0.0
 30
0.0
  0
INSERT
  5
16F
  8
LAYER_1
  2
E3_NODE_7_
 10
0.0
 20
0.0
 30
0.0
  0
INSERT
  5
17B
  8
LAYER_1
  2
E3_NODE_8_
 10
0.0
 20
0.0
 30
0.0
  0
INSERT
  5
1A7
  8
LAYER_1
  2
E3_NODE_9_
 10
0.0
 20
0.0
 30
0.0
  0
INSERT
  5
1B3
  8
LAYER_1
  2
E3_NODE_10_
 10
0.0
 20
0.0
 30
0.0
  0
INSERT
  5
1CD
  8
LAYER_1
  2
E3_NODE_11_
 10
0.0
 20
0.0
 30
0.0
  0
INSERT
  5
1EB
  8
LAYER_1
  2
E3_NODE_12_
 10
0.0
 20
0.0
 30
0.0
  0
INSERT
  5
20F
  8
LAYER_1
  2
E3_NODE_13_
 10
0.0
 20
0.0
 30
0.0
  0
INSERT
  5
237
  8
LAYER_1
  2
E3_NODE_14_
 10
0.0
 20
0.0
 30
0.0
  0
INSERT
  5
259
  8
LAYER_1
  2
E3_NODE_15_
 10
0.0
 20
0.0
 30
0.0
  0
INSERT
  5
279
  8
LAYER_1
  2
E3_NODE_16_
 10
0.0
 20
0.0
 30
0.0
  0
INSERT
  5
29B
  8
LAYER_1
  2
E3_NODE_17_
 10
0.0
 20
0.0
 30
0.0
  0
INSERT
  5
2AF
  8
LAYER_1
  2
E3_NODE_18_
 10
0.0
 20
0.0
 30
0.0
  0
INSERT
  5
2D5
  8
LAYER_1
  2
E3_NODE_19_
 10
0.0
 20
0.0
 30
0.0
  0
INSERT
  5
2E9
  8
LAYER_1
  2
E3_NODE_20_
 10
0.0
 20
0.0
 30
0.0
  0
INSERT
  5
303
  8
LAYER_1
  2
E3_NODE_21_
 10
0.0
 20
0.0
 30
0.0
  0
INSERT
  5
321
  8
LAYER_1
  2
E3_NODE_22_
 10
0.0
 20
0.0
 30
0.0
  0
INSERT
  5
345
  8
LAYER_1
  2
E3_NODE_23_
 10
0.0
 20
0.0
 30
0.0
  0
INSERT
  5
371
  8
LAYER_1
  2
E3_NODE_24_
 10
0.0
 20
0.0
 30
0.0
  0
INSERT
  5
47F
  8
LAYER_1
  2
E3_NODE_25_
 10
0.0
 20
0.0
 30
0.0
  0
INSERT
  5
4A9
  8
LAYER_1
  2
E3_NODE_26_
 10
0.0
 20
0.0
 30
0.0
  0
INSERT
  5
4B5
  8
LAYER_1
  2
E3_NODE_27_
 10
0.0
 20
0.0
 30
0.0
  0
INSERT
  5
4E0
  8
LAYER_1
  2
E3_NODE_28_
 10
0.0
 20
0.0
 30
0.0
  0
INSERT
  5
556
  8
LAYER_1
  2
E3_NODE_29_
 10
0.0
 20
0.0
 30
0.0
  0
INSERT
  5
566
  8
LAYER_1
  2
E3_NODE_30_
 10
0.0
 20
0.0
 30
0.0
  0
INSERT
  5
591
  8
LAYER_1
  2
E3_NODE_31_
 10
0.0
 20
0.0
 30
0.0
  0
INSERT
  5
59D
  8
LAYER_1
  2
E3_NODE_32_
 10
0.0
 20
0.0
 30
0.0
  0
INSERT
  5
5C9
  8
LAYER_1
  2
E3_NODE_33_
 10
0.0
 20
0.0
 30
0.0
  0
INSERT
  5
5D5
  8
LAYER_1
  2
E3_NODE_34_
 10
0.0
 20
0.0
 30
0.0
  0
INSERT
  5
5E9
  8
LAYER_1
  2
E3_NODE_35_
 10
0.0
 20
0.0
 30
0.0
  0
INSERT
  5
60F
  8
LAYER_1
  2
E3_NODE_36_
 10
0.0
 20
0.0
 30
0.0
  0
INSERT
  5
637
  8
LAYER_1
  2
E3_NODE_37_
 10
0.0
 20
0.0
 30
0.0
  0
INSERT
  5
661
  8
LAYER_1
  2
E3_NODE_38_
 10
0.0
 20
0.0
 30
0.0
  0
INSERT
  5
677
  8
LAYER_1
  2
E3_NODE_39_
 10
0.0
 20
0.0
 30
0.0
  0
INSERT
  5
69B
  8
LAYER_1
  2
E3_NODE_40_
 10
0.0
 20
0.0
 30
0.0
  0
INSERT
  5
6AF
  8
LAYER_1
  2
E3_NODE_41_
 10
0.0
 20
0.0
 30
0.0
  0
INSERT
  5
6D5
  8
LAYER_1
  2
E3_NODE_42_
 10
0.0
 20
0.0
 30
0.0
  0
INSERT
  5
6E9
  8
LAYER_1
  2
E3_NODE_43_
 10
0.0
 20
0.0
 30
0.0
  0
ENDSEC
  0
EOF
