999
Converted by 3D Exploration 
999
XDimension Software, LLC
999
http://www.xdsoft.com/explorer/
0
SECTION
2
HEADER
9
$ACADVER
1
AC1008
9
$UCSORG
10
0.0
20
0.0
30
0.0
9
$UCSXDIR
10
1.0
20
0.0
30
0.0
9
$TILEMODE
70
1
9
$UCSYDIR
10
0.0
20
1.0
30
0.0
9
$EXTMIN
10
0.000000
20
-80.500000
30
-80.500000
9
$EXTMAX
10
77.654999
20
80.500000
30
81.500000
0
ENDSEC
0
SECTION
2
TABLES
0
TABLE
2
LTYPE
70
1
0
LTYPE
2
CONTINUOUS
70
64
3
Solid line
72
65
73
0
40
0.0
0
ENDTAB
0
TABLE
2
LAYER
70
21
0
LAYER
2
OBJECT__0
70
0
62
253
6
CONTINUOUS
0
LAYER
2
OBJECT__1
70
0
62
253
6
CONTINUOUS
0
LAYER
2
OBJECT__3
70
0
62
253
6
CONTINUOUS
0
LAYER
2
OBJECT__4
70
0
62
253
6
CONTINUOUS
0
LAYER
2
OBJECT__5
70
0
62
253
6
CONTINUOUS
0
LAYER
2
OBJECT__7
70
0
62
253
6
CONTINUOUS
0
LAYER
2
OBJECT__8
70
0
62
253
6
CONTINUOUS
0
LAYER
2
OBJECT__9
70
0
62
253
6
CONTINUOUS
0
LAYER
2
OBJECT__11
70
0
62
253
6
CONTINUOUS
0
LAYER
2
OBJECT__12
70
0
62
253
6
CONTINUOUS
0
LAYER
2
OBJECT__13
70
0
62
253
6
CONTINUOUS
0
LAYER
2
OBJECT__15
70
0
62
253
6
CONTINUOUS
0
LAYER
2
OBJECT__16
70
0
62
253
6
CONTINUOUS
0
LAYER
2
OBJECT__17
70
0
62
253
6
CONTINUOUS
0
LAYER
2
OBJECT__18
70
0
62
253
6
CONTINUOUS
0
LAYER
2
OBJECT__19
70
0
62
253
6
CONTINUOUS
0
LAYER
2
OBJECT__20
70
0
62
253
6
CONTINUOUS
0
ENDTAB
0
TABLE
2
STYLE
70
1
0
STYLE
2
STANDARD
70
0
40
0.0
41
1.0
50
0.0
71
0
42
0.2
3
txt
4
1
0
ENDTAB
0
TABLE
2
UCS
70
0
0
ENDTAB
0
ENDSEC
0
SECTION
2
ENTITIES
0
POLYLINE
8
OBJECT__0
66
1
70
64
71
20
72
18
62
253
0
VERTEX
8
OBJECT__0
10
0.000000
20
-47.317001
30
66.125999
70
192
0
VERTEX
8
OBJECT__0
10
0.000000
20
-80.500000
30
1.000000
70
192
0
VERTEX
8
OBJECT__0
10
0.000000
20
-76.559998
30
25.875999
70
192
0
VERTEX
8
OBJECT__0
10
0.000000
20
-65.125999
30
-46.317001
70
192
0
VERTEX
8
OBJECT__0
10
0.000000
20
-76.559998
30
-23.875999
70
192
0
VERTEX
8
OBJECT__0
10
0.000000
20
65.125999
30
48.317001
70
192
0
VERTEX
8
OBJECT__0
10
0.000000
20
76.559998
30
-23.875999
70
192
0
VERTEX
8
OBJECT__0
10
0.000000
20
65.125999
30
-46.317001
70
192
0
VERTEX
8
OBJECT__0
10
0.000000
20
76.559998
30
25.875999
70
192
0
VERTEX
8
OBJECT__0
10
0.000000
20
80.500000
30
1.000000
70
192
0
VERTEX
8
OBJECT__0
10
0.000000
20
-24.875999
30
-75.559998
70
192
0
VERTEX
8
OBJECT__0
10
0.000000
20
-47.317001
30
-64.125999
70
192
0
VERTEX
8
OBJECT__0
10
0.000000
20
47.317001
30
-64.125999
70
192
0
VERTEX
8
OBJECT__0
10
0.000000
20
24.875999
30
-75.559998
70
192
0
VERTEX
8
OBJECT__0
10
0.000000
20
0.000000
30
81.500000
70
192
0
VERTEX
8
OBJECT__0
10
0.000000
20
24.875999
30
77.559998
70
192
0
VERTEX
8
OBJECT__0
10
0.000000
20
-24.875999
30
77.559998
70
192
0
VERTEX
8
OBJECT__0
10
0.000000
20
0.000000
30
-79.500000
70
192
0
VERTEX
8
OBJECT__0
10
0.000000
20
47.317001
30
66.125999
70
192
0
VERTEX
8
OBJECT__0
10
0.000000
20
-65.125999
30
48.317001
70
192
0
VERTEX
8
OBJECT__0
10
0
20
0
30
0
70
128
71
1
72
2
73
3
0
VERTEX
8
OBJECT__0
10
0
20
0
30
0
70
128
71
1
72
4
73
5
0
VERTEX
8
OBJECT__0
10
0
20
0
30
0
70
128
71
6
72
7
73
8
0
VERTEX
8
OBJECT__0
10
0
20
0
30
0
70
128
71
6
72
9
73
10
0
VERTEX
8
OBJECT__0
10
0
20
0
30
0
70
128
71
5
72
2
73
1
0
VERTEX
8
OBJECT__0
10
0
20
0
30
0
70
128
71
1
72
11
73
12
0
VERTEX
8
OBJECT__0
10
0
20
0
30
0
70
128
71
1
72
13
73
14
0
VERTEX
8
OBJECT__0
10
0
20
0
30
0
70
128
71
10
72
7
73
6
0
VERTEX
8
OBJECT__0
10
0
20
0
30
0
70
128
71
13
72
15
73
16
0
VERTEX
8
OBJECT__0
10
0
20
0
30
0
70
128
71
13
72
1
73
17
0
VERTEX
8
OBJECT__0
10
0
20
0
30
0
70
128
71
12
72
4
73
1
0
VERTEX
8
OBJECT__0
10
0
20
0
30
0
70
128
71
14
72
18
73
1
0
VERTEX
8
OBJECT__0
10
0
20
0
30
0
70
128
71
13
72
19
73
6
0
VERTEX
8
OBJECT__0
10
0
20
0
30
0
70
128
71
17
72
15
73
13
0
VERTEX
8
OBJECT__0
10
0
20
0
30
0
70
128
71
18
72
11
73
1
0
VERTEX
8
OBJECT__0
10
0
20
0
30
0
70
128
71
16
72
19
73
13
0
VERTEX
8
OBJECT__0
10
0
20
0
30
0
70
128
71
8
72
13
73
6
0
VERTEX
8
OBJECT__0
10
0
20
0
30
0
70
128
71
3
72
20
73
1
0
SEQEND
8
OBJECT__0
0
POLYLINE
8
OBJECT__1
66
1
70
64
71
64
72
64
62
253
0
VERTEX
8
OBJECT__1
10
0.000000
20
-80.500000
30
1.000000
70
192
0
VERTEX
8
OBJECT__1
10
10.029000
20
-80.324997
30
1.000000
70
192
0
VERTEX
8
OBJECT__1
10
10.029000
20
-78.310997
30
18.874001
70
192
0
VERTEX
8
OBJECT__1
10
0.000000
20
-76.559998
30
25.875999
70
192
0
VERTEX
8
OBJECT__1
10
0.000000
20
-65.125999
30
48.317001
70
192
0
VERTEX
8
OBJECT__1
10
10.029000
20
-72.370003
30
35.852001
70
192
0
VERTEX
8
OBJECT__1
10
10.029000
20
-75.935997
30
25.662001
70
192
0
VERTEX
8
OBJECT__1
10
0.000000
20
-47.317001
30
66.125999
70
192
0
VERTEX
8
OBJECT__1
10
10.029000
20
-62.800999
30
51.082001
70
192
0
VERTEX
8
OBJECT__1
10
10.029000
20
-50.082001
30
63.800999
70
192
0
VERTEX
8
OBJECT__1
10
10.029000
20
-64.710999
30
48.042000
70
192
0
VERTEX
8
OBJECT__1
10
10.029000
20
-47.042000
30
65.710999
70
192
0
VERTEX
8
OBJECT__1
10
10.029000
20
-34.852001
30
73.370003
70
192
0
VERTEX
8
OBJECT__1
10
0.000000
20
-24.875999
30
77.559998
70
192
0
VERTEX
8
OBJECT__1
10
0.000000
20
0.000000
30
81.500000
70
192
0
VERTEX
8
OBJECT__1
10
10.029000
20
-17.874001
30
79.310997
70
192
0
VERTEX
8
OBJECT__1
10
10.029000
20
-24.662001
30
76.935997
70
192
0
VERTEX
8
OBJECT__1
10
10.029000
20
0.000000
30
81.324997
70
192
0
VERTEX
8
OBJECT__1
10
10.029000
20
17.874001
30
79.310997
70
192
0
VERTEX
8
OBJECT__1
10
0.000000
20
24.875999
30
77.559998
70
192
0
VERTEX
8
OBJECT__1
10
0.000000
20
47.317001
30
66.125999
70
192
0
VERTEX
8
OBJECT__1
10
10.029000
20
34.852001
30
73.370003
70
192
0
VERTEX
8
OBJECT__1
10
10.029000
20
24.662001
30
76.935997
70
192
0
VERTEX
8
OBJECT__1
10
0.000000
20
65.125999
30
48.317001
70
192
0
VERTEX
8
OBJECT__1
10
10.029000
20
50.082001
30
63.800999
70
192
0
VERTEX
8
OBJECT__1
10
10.029000
20
62.800999
30
51.082001
70
192
0
VERTEX
8
OBJECT__1
10
10.029000
20
47.042000
30
65.710999
70
192
0
VERTEX
8
OBJECT__1
10
10.029000
20
64.710999
30
48.042000
70
192
0
VERTEX
8
OBJECT__1
10
10.029000
20
72.370003
30
35.852001
70
192
0
VERTEX
8
OBJECT__1
10
0.000000
20
76.559998
30
25.875999
70
192
0
VERTEX
8
OBJECT__1
10
0.000000
20
80.500000
30
1.000000
70
192
0
VERTEX
8
OBJECT__1
10
10.029000
20
78.310997
30
18.874001
70
192
0
VERTEX
8
OBJECT__1
10
10.029000
20
75.935997
30
25.662001
70
192
0
VERTEX
8
OBJECT__1
10
10.029000
20
80.324997
30
1.000000
70
192
0
VERTEX
8
OBJECT__1
10
10.029000
20
78.310997
30
-16.874001
70
192
0
VERTEX
8
OBJECT__1
10
0.000000
20
76.559998
30
-23.875999
70
192
0
VERTEX
8
OBJECT__1
10
0.000000
20
65.125999
30
-46.317001
70
192
0
VERTEX
8
OBJECT__1
10
10.029000
20
72.370003
30
-33.852001
70
192
0
VERTEX
8
OBJECT__1
10
10.029000
20
75.935997
30
-23.662001
70
192
0
VERTEX
8
OBJECT__1
10
0.000000
20
47.317001
30
-64.125999
70
192
0
VERTEX
8
OBJECT__1
10
10.029000
20
62.800999
30
-49.082001
70
192
0
VERTEX
8
OBJECT__1
10
10.029000
20
50.082001
30
-61.800999
70
192
0
VERTEX
8
OBJECT__1
10
10.029000
20
64.710999
30
-46.042000
70
192
0
VERTEX
8
OBJECT__1
10
10.029000
20
47.042000
30
-63.710999
70
192
0
VERTEX
8
OBJECT__1
10
10.029000
20
34.852001
30
-71.370003
70
192
0
VERTEX
8
OBJECT__1
10
0.000000
20
24.875999
30
-75.559998
70
192
0
VERTEX
8
OBJECT__1
10
0.000000
20
0.000000
30
-79.500000
70
192
0
VERTEX
8
OBJECT__1
10
10.029000
20
17.874001
30
-77.310997
70
192
0
VERTEX
8
OBJECT__1
10
10.029000
20
24.662001
30
-74.935997
70
192
0
VERTEX
8
OBJECT__1
10
10.029000
20
0.000000
30
-79.324997
70
192
0
VERTEX
8
OBJECT__1
10
10.029000
20
-17.874001
30
-77.310997
70
192
0
VERTEX
8
OBJECT__1
10
0.000000
20
-24.875999
30
-75.559998
70
192
0
VERTEX
8
OBJECT__1
10
0.000000
20
-47.317001
30
-64.125999
70
192
0
VERTEX
8
OBJECT__1
10
10.029000
20
-34.852001
30
-71.370003
70
192
0
VERTEX
8
OBJECT__1
10
10.029000
20
-24.662001
30
-74.935997
70
192
0
VERTEX
8
OBJECT__1
10
0.000000
20
-65.125999
30
-46.317001
70
192
0
VERTEX
8
OBJECT__1
10
10.029000
20
-50.082001
30
-61.800999
70
192
0
VERTEX
8
OBJECT__1
10
10.029000
20
-62.800999
30
-49.082001
70
192
0
VERTEX
8
OBJECT__1
10
10.029000
20
-47.042000
30
-63.710999
70
192
0
VERTEX
8
OBJECT__1
10
10.029000
20
-64.710999
30
-46.042000
70
192
0
VERTEX
8
OBJECT__1
10
10.029000
20
-72.370003
30
-33.852001
70
192
0
VERTEX
8
OBJECT__1
10
0.000000
20
-76.559998
30
-23.875999
70
192
0
VERTEX
8
OBJECT__1
10
10.029000
20
-78.310997
30
-16.874001
70
192
0
VERTEX
8
OBJECT__1
10
10.029000
20
-75.935997
30
-23.662001
70
192
0
VERTEX
8
OBJECT__1
10
0
20
0
30
0
70
128
71
1
72
2
73
3
0
VERTEX
8
OBJECT__1
10
0
20
0
30
0
70
128
71
3
72
4
73
1
0
VERTEX
8
OBJECT__1
10
0
20
0
30
0
70
128
71
5
72
4
73
6
0
VERTEX
8
OBJECT__1
10
0
20
0
30
0
70
128
71
4
72
7
73
6
0
VERTEX
8
OBJECT__1
10
0
20
0
30
0
70
128
71
8
72
5
73
9
0
VERTEX
8
OBJECT__1
10
0
20
0
30
0
70
128
71
9
72
10
73
8
0
VERTEX
8
OBJECT__1
10
0
20
0
30
0
70
128
71
5
72
11
73
9
0
VERTEX
8
OBJECT__1
10
0
20
0
30
0
70
128
71
8
72
12
73
13
0
VERTEX
8
OBJECT__1
10
0
20
0
30
0
70
128
71
13
72
14
73
8
0
VERTEX
8
OBJECT__1
10
0
20
0
30
0
70
128
71
15
72
14
73
16
0
VERTEX
8
OBJECT__1
10
0
20
0
30
0
70
128
71
14
72
17
73
16
0
VERTEX
8
OBJECT__1
10
0
20
0
30
0
70
128
71
15
72
18
73
19
0
VERTEX
8
OBJECT__1
10
0
20
0
30
0
70
128
71
19
72
20
73
15
0
VERTEX
8
OBJECT__1
10
0
20
0
30
0
70
128
71
21
72
20
73
22
0
VERTEX
8
OBJECT__1
10
0
20
0
30
0
70
128
71
20
72
23
73
22
0
VERTEX
8
OBJECT__1
10
0
20
0
30
0
70
128
71
24
72
21
73
25
0
VERTEX
8
OBJECT__1
10
0
20
0
30
0
70
128
71
25
72
26
73
24
0
VERTEX
8
OBJECT__1
10
0
20
0
30
0
70
128
71
21
72
27
73
25
0
VERTEX
8
OBJECT__1
10
0
20
0
30
0
70
128
71
24
72
28
73
29
0
VERTEX
8
OBJECT__1
10
0
20
0
30
0
70
128
71
29
72
30
73
24
0
VERTEX
8
OBJECT__1
10
0
20
0
30
0
70
128
71
31
72
30
73
32
0
VERTEX
8
OBJECT__1
10
0
20
0
30
0
70
128
71
30
72
33
73
32
0
VERTEX
8
OBJECT__1
10
0
20
0
30
0
70
128
71
31
72
34
73
35
0
VERTEX
8
OBJECT__1
10
0
20
0
30
0
70
128
71
35
72
36
73
31
0
VERTEX
8
OBJECT__1
10
0
20
0
30
0
70
128
71
37
72
36
73
38
0
VERTEX
8
OBJECT__1
10
0
20
0
30
0
70
128
71
36
72
39
73
38
0
VERTEX
8
OBJECT__1
10
0
20
0
30
0
70
128
71
40
72
37
73
41
0
VERTEX
8
OBJECT__1
10
0
20
0
30
0
70
128
71
41
72
42
73
40
0
VERTEX
8
OBJECT__1
10
0
20
0
30
0
70
128
71
37
72
43
73
41
0
VERTEX
8
OBJECT__1
10
0
20
0
30
0
70
128
71
40
72
44
73
45
0
VERTEX
8
OBJECT__1
10
0
20
0
30
0
70
128
71
45
72
46
73
40
0
VERTEX
8
OBJECT__1
10
0
20
0
30
0
70
128
71
47
72
46
73
48
0
VERTEX
8
OBJECT__1
10
0
20
0
30
0
70
128
71
46
72
49
73
48
0
VERTEX
8
OBJECT__1
10
0
20
0
30
0
70
128
71
47
72
50
73
51
0
VERTEX
8
OBJECT__1
10
0
20
0
30
0
70
128
71
51
72
52
73
47
0
VERTEX
8
OBJECT__1
10
0
20
0
30
0
70
128
71
53
72
52
73
54
0
VERTEX
8
OBJECT__1
10
0
20
0
30
0
70
128
71
52
72
55
73
54
0
VERTEX
8
OBJECT__1
10
0
20
0
30
0
70
128
71
56
72
53
73
57
0
VERTEX
8
OBJECT__1
10
0
20
0
30
0
70
128
71
57
72
58
73
56
0
VERTEX
8
OBJECT__1
10
0
20
0
30
0
70
128
71
53
72
59
73
57
0
VERTEX
8
OBJECT__1
10
0
20
0
30
0
70
128
71
56
72
60
73
61
0
VERTEX
8
OBJECT__1
10
0
20
0
30
0
70
128
71
61
72
62
73
56
0
VERTEX
8
OBJECT__1
10
0
20
0
30
0
70
128
71
1
72
62
73
63
0
VERTEX
8
OBJECT__1
10
0
20
0
30
0
70
128
71
62
72
64
73
63
0
VERTEX
8
OBJECT__1
10
0
20
0
30
0
70
128
71
63
72
2
73
1
0
VERTEX
8
OBJECT__1
10
0
20
0
30
0
70
128
71
61
72
64
73
62
0
VERTEX
8
OBJECT__1
10
0
20
0
30
0
70
128
71
58
72
60
73
56
0
VERTEX
8
OBJECT__1
10
0
20
0
30
0
70
128
71
54
72
59
73
53
0
VERTEX
8
OBJECT__1
10
0
20
0
30
0
70
128
71
51
72
55
73
52
0
VERTEX
8
OBJECT__1
10
0
20
0
30
0
70
128
71
48
72
50
73
47
0
VERTEX
8
OBJECT__1
10
0
20
0
30
0
70
128
71
45
72
49
73
46
0
VERTEX
8
OBJECT__1
10
0
20
0
30
0
70
128
71
42
72
44
73
40
0
VERTEX
8
OBJECT__1
10
0
20
0
30
0
70
128
71
38
72
43
73
37
0
VERTEX
8
OBJECT__1
10
0
20
0
30
0
70
128
71
35
72
39
73
36
0
VERTEX
8
OBJECT__1
10
0
20
0
30
0
70
128
71
32
72
34
73
31
0
VERTEX
8
OBJECT__1
10
0
20
0
30
0
70
128
71
29
72
33
73
30
0
VERTEX
8
OBJECT__1
10
0
20
0
30
0
70
128
71
26
72
28
73
24
0
VERTEX
8
OBJECT__1
10
0
20
0
30
0
70
128
71
22
72
27
73
21
0
VERTEX
8
OBJECT__1
10
0
20
0
30
0
70
128
71
19
72
23
73
20
0
VERTEX
8
OBJECT__1
10
0
20
0
30
0
70
128
71
16
72
18
73
15
0
VERTEX
8
OBJECT__1
10
0
20
0
30
0
70
128
71
13
72
17
73
14
0
VERTEX
8
OBJECT__1
10
0
20
0
30
0
70
128
71
10
72
12
73
8
0
VERTEX
8
OBJECT__1
10
0
20
0
30
0
70
128
71
6
72
11
73
5
0
VERTEX
8
OBJECT__1
10
0
20
0
30
0
70
128
71
3
72
7
73
4
0
SEQEND
8
OBJECT__1
0
POLYLINE
8
OBJECT__3
66
1
70
64
71
73
72
100
62
253
0
VERTEX
8
OBJECT__3
10
10.029000
20
0.000000
30
81.324997
70
192
0
VERTEX
8
OBJECT__3
10
10.029000
20
-17.874001
30
79.310997
70
192
0
VERTEX
8
OBJECT__3
10
14.897000
20
-8.966000
30
40.283001
70
192
0
VERTEX
8
OBJECT__3
10
10.029000
20
-24.662001
30
76.935997
70
192
0
VERTEX
8
OBJECT__3
10
10.029000
20
-34.852001
30
73.370003
70
192
0
VERTEX
8
OBJECT__3
10
14.897000
20
-17.483000
30
37.303001
70
192
0
VERTEX
8
OBJECT__3
10
10.029000
20
-47.042000
30
65.710999
70
192
0
VERTEX
8
OBJECT__3
10
14.897000
20
-25.122999
30
32.502998
70
192
0
VERTEX
8
OBJECT__3
10
10.029000
20
-62.800999
30
51.082001
70
192
0
VERTEX
8
OBJECT__3
10
14.897000
20
-31.503000
30
26.122999
70
192
0
VERTEX
8
OBJECT__3
10
10.029000
20
-64.710999
30
48.042000
70
192
0
VERTEX
8
OBJECT__3
10
10.029000
20
-72.370003
30
35.852001
70
192
0
VERTEX
8
OBJECT__3
10
14.897000
20
-36.303001
30
18.483000
70
192
0
VERTEX
8
OBJECT__3
10
10.029000
20
-75.935997
30
25.662001
70
192
0
VERTEX
8
OBJECT__3
10
14.897000
20
-39.283001
30
9.966000
70
192
0
VERTEX
8
OBJECT__3
10
10.029000
20
-78.310997
30
18.874001
70
192
0
VERTEX
8
OBJECT__3
10
10.029000
20
-80.324997
30
1.000000
70
192
0
VERTEX
8
OBJECT__3
10
14.897000
20
-40.293999
30
1.000000
70
192
0
VERTEX
8
OBJECT__3
10
10.029000
20
-78.310997
30
-16.874001
70
192
0
VERTEX
8
OBJECT__3
10
14.897000
20
-39.283001
30
-7.966000
70
192
0
VERTEX
8
OBJECT__3
10
10.029000
20
-75.935997
30
-23.662001
70
192
0
VERTEX
8
OBJECT__3
10
10.029000
20
-72.370003
30
-33.852001
70
192
0
VERTEX
8
OBJECT__3
10
14.897000
20
-36.303001
30
-16.483000
70
192
0
VERTEX
8
OBJECT__3
10
10.029000
20
-64.710999
30
-46.042000
70
192
0
VERTEX
8
OBJECT__3
10
14.897000
20
-31.503000
30
-24.122999
70
192
0
VERTEX
8
OBJECT__3
10
10.029000
20
-50.082001
30
-61.800999
70
192
0
VERTEX
8
OBJECT__3
10
14.897000
20
-25.122999
30
-30.503000
70
192
0
VERTEX
8
OBJECT__3
10
10.029000
20
-47.042000
30
-63.710999
70
192
0
VERTEX
8
OBJECT__3
10
10.029000
20
-34.852001
30
-71.370003
70
192
0
VERTEX
8
OBJECT__3
10
14.897000
20
-17.483000
30
-35.303001
70
192
0
VERTEX
8
OBJECT__3
10
10.029000
20
-24.662001
30
-74.935997
70
192
0
VERTEX
8
OBJECT__3
10
14.897000
20
-8.966000
30
-38.283001
70
192
0
VERTEX
8
OBJECT__3
10
10.029000
20
-17.874001
30
-77.310997
70
192
0
VERTEX
8
OBJECT__3
10
10.029000
20
0.000000
30
-79.324997
70
192
0
VERTEX
8
OBJECT__3
10
14.897000
20
0.000000
30
-39.293999
70
192
0
VERTEX
8
OBJECT__3
10
10.029000
20
17.874001
30
-77.310997
70
192
0
VERTEX
8
OBJECT__3
10
14.897000
20
8.966000
30
-38.283001
70
192
0
VERTEX
8
OBJECT__3
10
10.029000
20
24.662001
30
-74.935997
70
192
0
VERTEX
8
OBJECT__3
10
10.029000
20
34.852001
30
-71.370003
70
192
0
VERTEX
8
OBJECT__3
10
14.897000
20
17.483000
30
-35.303001
70
192
0
VERTEX
8
OBJECT__3
10
10.029000
20
47.042000
30
-63.710999
70
192
0
VERTEX
8
OBJECT__3
10
14.897000
20
25.122999
30
-30.503000
70
192
0
VERTEX
8
OBJECT__3
10
10.029000
20
62.800999
30
-49.082001
70
192
0
VERTEX
8
OBJECT__3
10
14.897000
20
31.503000
30
-24.122999
70
192
0
VERTEX
8
OBJECT__3
10
10.029000
20
64.710999
30
-46.042000
70
192
0
VERTEX
8
OBJECT__3
10
10.029000
20
72.370003
30
-33.852001
70
192
0
VERTEX
8
OBJECT__3
10
14.897000
20
36.303001
30
-16.483000
70
192
0
VERTEX
8
OBJECT__3
10
10.029000
20
75.935997
30
-23.662001
70
192
0
VERTEX
8
OBJECT__3
10
14.897000
20
39.283001
30
-7.966000
70
192
0
VERTEX
8
OBJECT__3
10
10.029000
20
78.310997
30
-16.874001
70
192
0
VERTEX
8
OBJECT__3
10
10.029000
20
80.324997
30
1.000000
70
192
0
VERTEX
8
OBJECT__3
10
14.897000
20
40.293999
30
1.000000
70
192
0
VERTEX
8
OBJECT__3
10
10.029000
20
78.310997
30
18.874001
70
192
0
VERTEX
8
OBJECT__3
10
14.897000
20
39.283001
30
9.966000
70
192
0
VERTEX
8
OBJECT__3
10
10.029000
20
75.935997
30
25.662001
70
192
0
VERTEX
8
OBJECT__3
10
10.029000
20
72.370003
30
35.852001
70
192
0
VERTEX
8
OBJECT__3
10
14.897000
20
36.303001
30
18.483000
70
192
0
VERTEX
8
OBJECT__3
10
10.029000
20
64.710999
30
48.042000
70
192
0
VERTEX
8
OBJECT__3
10
14.897000
20
31.503000
30
26.122999
70
192
0
VERTEX
8
OBJECT__3
10
10.029000
20
50.082001
30
63.800999
70
192
0
VERTEX
8
OBJECT__3
10
14.897000
20
25.122999
30
32.502998
70
192
0
VERTEX
8
OBJECT__3
10
10.029000
20
47.042000
30
65.710999
70
192
0
VERTEX
8
OBJECT__3
10
10.029000
20
34.852001
30
73.370003
70
192
0
VERTEX
8
OBJECT__3
10
14.897000
20
17.483000
30
37.303001
70
192
0
VERTEX
8
OBJECT__3
10
10.029000
20
24.662001
30
76.935997
70
192
0
VERTEX
8
OBJECT__3
10
14.897000
20
8.966000
30
40.283001
70
192
0
VERTEX
8
OBJECT__3
10
14.897000
20
0.000000
30
41.293999
70
192
0
VERTEX
8
OBJECT__3
10
16.523001
20
0.000000
30
1.000000
70
192
0
VERTEX
8
OBJECT__3
10
10.029000
20
17.874001
30
79.310997
70
192
0
VERTEX
8
OBJECT__3
10
10.029000
20
62.800999
30
51.082001
70
192
0
VERTEX
8
OBJECT__3
10
10.029000
20
50.082001
30
-61.800999
70
192
0
VERTEX
8
OBJECT__3
10
10.029000
20
-62.800999
30
-49.082001
70
192
0
VERTEX
8
OBJECT__3
10
10.029000
20
-50.082001
30
63.800999
70
192
0
VERTEX
8
OBJECT__3
10
0
20
0
30
0
70
128
71
1
72
2
73
3
0
VERTEX
8
OBJECT__3
10
0
20
0
30
0
70
128
71
4
72
5
73
6
0
VERTEX
8
OBJECT__3
10
0
20
0
30
0
70
128
71
3
72
2
73
4
0
VERTEX
8
OBJECT__3
10
0
20
0
30
0
70
128
71
7
72
8
73
6
0
VERTEX
8
OBJECT__3
10
0
20
0
30
0
70
128
71
6
72
5
73
7
0
VERTEX
8
OBJECT__3
10
0
20
0
30
0
70
128
71
9
72
10
73
8
0
VERTEX
8
OBJECT__3
10
0
20
0
30
0
70
128
71
11
72
12
73
13
0
VERTEX
8
OBJECT__3
10
0
20
0
30
0
70
128
71
10
72
9
73
11
0
VERTEX
8
OBJECT__3
10
0
20
0
30
0
70
128
71
14
72
15
73
13
0
VERTEX
8
OBJECT__3
10
0
20
0
30
0
70
128
71
13
72
12
73
14
0
VERTEX
8
OBJECT__3
10
0
20
0
30
0
70
128
71
16
72
17
73
18
0
VERTEX
8
OBJECT__3
10
0
20
0
30
0
70
128
71
17
72
19
73
20
0
VERTEX
8
OBJECT__3
10
0
20
0
30
0
70
128
71
21
72
22
73
23
0
VERTEX
8
OBJECT__3
10
0
20
0
30
0
70
128
71
20
72
19
73
21
0
VERTEX
8
OBJECT__3
10
0
20
0
30
0
70
128
71
24
72
25
73
23
0
VERTEX
8
OBJECT__3
10
0
20
0
30
0
70
128
71
23
72
22
73
24
0
VERTEX
8
OBJECT__3
10
0
20
0
30
0
70
128
71
26
72
27
73
25
0
VERTEX
8
OBJECT__3
10
0
20
0
30
0
70
128
71
28
72
29
73
30
0
VERTEX
8
OBJECT__3
10
0
20
0
30
0
70
128
71
27
72
26
73
28
0
VERTEX
8
OBJECT__3
10
0
20
0
30
0
70
128
71
31
72
32
73
30
0
VERTEX
8
OBJECT__3
10
0
20
0
30
0
70
128
71
30
72
29
73
31
0
VERTEX
8
OBJECT__3
10
0
20
0
30
0
70
128
71
33
72
34
73
35
0
VERTEX
8
OBJECT__3
10
0
20
0
30
0
70
128
71
34
72
36
73
37
0
VERTEX
8
OBJECT__3
10
0
20
0
30
0
70
128
71
38
72
39
73
40
0
VERTEX
8
OBJECT__3
10
0
20
0
30
0
70
128
71
37
72
36
73
38
0
VERTEX
8
OBJECT__3
10
0
20
0
30
0
70
128
71
41
72
42
73
40
0
VERTEX
8
OBJECT__3
10
0
20
0
30
0
70
128
71
40
72
39
73
41
0
VERTEX
8
OBJECT__3
10
0
20
0
30
0
70
128
71
43
72
44
73
42
0
VERTEX
8
OBJECT__3
10
0
20
0
30
0
70
128
71
45
72
46
73
47
0
VERTEX
8
OBJECT__3
10
0
20
0
30
0
70
128
71
44
72
43
73
45
0
VERTEX
8
OBJECT__3
10
0
20
0
30
0
70
128
71
48
72
49
73
47
0
VERTEX
8
OBJECT__3
10
0
20
0
30
0
70
128
71
47
72
46
73
48
0
VERTEX
8
OBJECT__3
10
0
20
0
30
0
70
128
71
50
72
51
73
52
0
VERTEX
8
OBJECT__3
10
0
20
0
30
0
70
128
71
51
72
53
73
54
0
VERTEX
8
OBJECT__3
10
0
20
0
30
0
70
128
71
55
72
56
73
57
0
VERTEX
8
OBJECT__3
10
0
20
0
30
0
70
128
71
54
72
53
73
55
0
VERTEX
8
OBJECT__3
10
0
20
0
30
0
70
128
71
58
72
59
73
57
0
VERTEX
8
OBJECT__3
10
0
20
0
30
0
70
128
71
57
72
56
73
58
0
VERTEX
8
OBJECT__3
10
0
20
0
30
0
70
128
71
60
72
61
73
59
0
VERTEX
8
OBJECT__3
10
0
20
0
30
0
70
128
71
62
72
63
73
64
0
VERTEX
8
OBJECT__3
10
0
20
0
30
0
70
128
71
61
72
60
73
62
0
VERTEX
8
OBJECT__3
10
0
20
0
30
0
70
128
71
65
72
66
73
64
0
VERTEX
8
OBJECT__3
10
0
20
0
30
0
70
128
71
64
72
63
73
65
0
VERTEX
8
OBJECT__3
10
0
20
0
30
0
70
128
71
1
72
67
73
66
0
VERTEX
8
OBJECT__3
10
0
20
0
30
0
70
128
71
68
72
66
73
67
0
VERTEX
8
OBJECT__3
10
0
20
0
30
0
70
128
71
68
72
64
73
66
0
VERTEX
8
OBJECT__3
10
0
20
0
30
0
70
128
71
68
72
61
73
64
0
VERTEX
8
OBJECT__3
10
0
20
0
30
0
70
128
71
68
72
59
73
61
0
VERTEX
8
OBJECT__3
10
0
20
0
30
0
70
128
71
68
72
57
73
59
0
VERTEX
8
OBJECT__3
10
0
20
0
30
0
70
128
71
68
72
54
73
57
0
VERTEX
8
OBJECT__3
10
0
20
0
30
0
70
128
71
68
72
52
73
54
0
VERTEX
8
OBJECT__3
10
0
20
0
30
0
70
128
71
68
72
49
73
52
0
VERTEX
8
OBJECT__3
10
0
20
0
30
0
70
128
71
68
72
47
73
49
0
VERTEX
8
OBJECT__3
10
0
20
0
30
0
70
128
71
68
72
44
73
47
0
VERTEX
8
OBJECT__3
10
0
20
0
30
0
70
128
71
68
72
42
73
44
0
VERTEX
8
OBJECT__3
10
0
20
0
30
0
70
128
71
68
72
40
73
42
0
VERTEX
8
OBJECT__3
10
0
20
0
30
0
70
128
71
68
72
37
73
40
0
VERTEX
8
OBJECT__3
10
0
20
0
30
0
70
128
71
68
72
35
73
37
0
VERTEX
8
OBJECT__3
10
0
20
0
30
0
70
128
71
68
72
32
73
35
0
VERTEX
8
OBJECT__3
10
0
20
0
30
0
70
128
71
68
72
30
73
32
0
VERTEX
8
OBJECT__3
10
0
20
0
30
0
70
128
71
68
72
27
73
30
0
VERTEX
8
OBJECT__3
10
0
20
0
30
0
70
128
71
68
72
25
73
27
0
VERTEX
8
OBJECT__3
10
0
20
0
30
0
70
128
71
68
72
23
73
25
0
VERTEX
8
OBJECT__3
10
0
20
0
30
0
70
128
71
68
72
20
73
23
0
VERTEX
8
OBJECT__3
10
0
20
0
30
0
70
128
71
68
72
18
73
20
0
VERTEX
8
OBJECT__3
10
0
20
0
30
0
70
128
71
68
72
15
73
18
0
VERTEX
8
OBJECT__3
10
0
20
0
30
0
70
128
71
68
72
13
73
15
0
VERTEX
8
OBJECT__3
10
0
20
0
30
0
70
128
71
68
72
10
73
13
0
VERTEX
8
OBJECT__3
10
0
20
0
30
0
70
128
71
68
72
8
73
10
0
VERTEX
8
OBJECT__3
10
0
20
0
30
0
70
128
71
68
72
6
73
8
0
VERTEX
8
OBJECT__3
10
0
20
0
30
0
70
128
71
68
72
3
73
6
0
VERTEX
8
OBJECT__3
10
0
20
0
30
0
70
128
71
68
72
67
73
3
0
VERTEX
8
OBJECT__3
10
0
20
0
30
0
70
128
71
66
72
69
73
1
0
VERTEX
8
OBJECT__3
10
0
20
0
30
0
70
128
71
65
72
69
73
66
0
VERTEX
8
OBJECT__3
10
0
20
0
30
0
70
128
71
64
72
61
73
62
0
VERTEX
8
OBJECT__3
10
0
20
0
30
0
70
128
71
59
72
70
73
60
0
VERTEX
8
OBJECT__3
10
0
20
0
30
0
70
128
71
58
72
70
73
59
0
VERTEX
8
OBJECT__3
10
0
20
0
30
0
70
128
71
57
72
54
73
55
0
VERTEX
8
OBJECT__3
10
0
20
0
30
0
70
128
71
54
72
52
73
51
0
VERTEX
8
OBJECT__3
10
0
20
0
30
0
70
128
71
52
72
49
73
50
0
VERTEX
8
OBJECT__3
10
0
20
0
30
0
70
128
71
48
72
50
73
49
0
VERTEX
8
OBJECT__3
10
0
20
0
30
0
70
128
71
47
72
44
73
45
0
VERTEX
8
OBJECT__3
10
0
20
0
30
0
70
128
71
42
72
71
73
43
0
VERTEX
8
OBJECT__3
10
0
20
0
30
0
70
128
71
41
72
71
73
42
0
VERTEX
8
OBJECT__3
10
0
20
0
30
0
70
128
71
40
72
37
73
38
0
VERTEX
8
OBJECT__3
10
0
20
0
30
0
70
128
71
37
72
35
73
34
0
VERTEX
8
OBJECT__3
10
0
20
0
30
0
70
128
71
35
72
32
73
33
0
VERTEX
8
OBJECT__3
10
0
20
0
30
0
70
128
71
31
72
33
73
32
0
VERTEX
8
OBJECT__3
10
0
20
0
30
0
70
128
71
30
72
27
73
28
0
VERTEX
8
OBJECT__3
10
0
20
0
30
0
70
128
71
25
72
72
73
26
0
VERTEX
8
OBJECT__3
10
0
20
0
30
0
70
128
71
24
72
72
73
25
0
VERTEX
8
OBJECT__3
10
0
20
0
30
0
70
128
71
23
72
20
73
21
0
VERTEX
8
OBJECT__3
10
0
20
0
30
0
70
128
71
20
72
18
73
17
0
VERTEX
8
OBJECT__3
10
0
20
0
30
0
70
128
71
18
72
15
73
16
0
VERTEX
8
OBJECT__3
10
0
20
0
30
0
70
128
71
14
72
16
73
15
0
VERTEX
8
OBJECT__3
10
0
20
0
30
0
70
128
71
13
72
10
73
11
0
VERTEX
8
OBJECT__3
10
0
20
0
30
0
70
128
71
8
72
73
73
9
0
VERTEX
8
OBJECT__3
10
0
20
0
30
0
70
128
71
7
72
73
73
8
0
VERTEX
8
OBJECT__3
10
0
20
0
30
0
70
128
71
6
72
3
73
4
0
VERTEX
8
OBJECT__3
10
0
20
0
30
0
70
128
71
3
72
67
73
1
0
SEQEND
8
OBJECT__3
0
POLYLINE
8
OBJECT__4
66
1
70
64
71
27
72
27
62
253
0
VERTEX
8
OBJECT__4
10
6.487000
20
23.150000
30
-24.150000
70
192
0
VERTEX
8
OBJECT__4
10
6.487000
20
26.145000
30
-12.000000
70
192
0
VERTEX
8
OBJECT__4
10
32.400002
20
25.919001
30
-12.000000
70
192
0
VERTEX
8
OBJECT__4
10
6.487000
20
14.852000
30
-33.516998
70
192
0
VERTEX
8
OBJECT__4
10
32.400002
20
22.950001
30
-24.045000
70
192
0
VERTEX
8
OBJECT__4
10
6.487000
20
3.151000
30
-37.953999
70
192
0
VERTEX
8
OBJECT__4
10
32.400002
20
14.724000
30
-33.331001
70
192
0
VERTEX
8
OBJECT__4
10
6.487000
20
-9.271000
30
-36.445999
70
192
0
VERTEX
8
OBJECT__4
10
32.400002
20
3.124000
30
-37.730000
70
192
0
VERTEX
8
OBJECT__4
10
6.487000
20
-19.570000
30
-29.337000
70
192
0
VERTEX
8
OBJECT__4
10
32.400002
20
-9.191000
30
-36.235001
70
192
0
VERTEX
8
OBJECT__4
10
6.487000
20
-25.385000
30
-18.257000
70
192
0
VERTEX
8
OBJECT__4
10
32.400002
20
-19.400999
30
-29.187000
70
192
0
VERTEX
8
OBJECT__4
10
32.400002
20
-25.166000
30
-18.202999
70
192
0
VERTEX
8
OBJECT__4
10
32.400002
20
-25.166000
30
-5.797000
70
192
0
VERTEX
8
OBJECT__4
10
6.487000
20
-26.145000
30
-12.000000
70
192
0
VERTEX
8
OBJECT__4
10
6.487000
20
-25.385000
30
-5.743000
70
192
0
VERTEX
8
OBJECT__4
10
32.400002
20
-19.400999
30
5.187000
70
192
0
VERTEX
8
OBJECT__4
10
6.487000
20
-19.570000
30
5.337000
70
192
0
VERTEX
8
OBJECT__4
10
32.400002
20
-9.191000
30
12.235000
70
192
0
VERTEX
8
OBJECT__4
10
6.487000
20
-9.271000
30
12.446000
70
192
0
VERTEX
8
OBJECT__4
10
32.400002
20
3.124000
30
13.730000
70
192
0
VERTEX
8
OBJECT__4
10
6.487000
20
3.151000
30
13.954000
70
192
0
VERTEX
8
OBJECT__4
10
32.400002
20
14.724000
30
9.331000
70
192
0
VERTEX
8
OBJECT__4
10
6.487000
20
23.150000
30
0.150000
70
192
0
VERTEX
8
OBJECT__4
10
6.487000
20
14.852000
30
9.517000
70
192
0
VERTEX
8
OBJECT__4
10
32.400002
20
22.950001
30
0.045000
70
192
0
VERTEX
8
OBJECT__4
10
0
20
0
30
0
70
128
71
1
72
2
73
3
0
VERTEX
8
OBJECT__4
10
0
20
0
30
0
70
128
71
4
72
1
73
5
0
VERTEX
8
OBJECT__4
10
0
20
0
30
0
70
128
71
6
72
4
73
7
0
VERTEX
8
OBJECT__4
10
0
20
0
30
0
70
128
71
8
72
6
73
9
0
VERTEX
8
OBJECT__4
10
0
20
0
30
0
70
128
71
10
72
8
73
11
0
VERTEX
8
OBJECT__4
10
0
20
0
30
0
70
128
71
12
72
10
73
13
0
VERTEX
8
OBJECT__4
10
0
20
0
30
0
70
128
71
14
72
15
73
16
0
VERTEX
8
OBJECT__4
10
0
20
0
30
0
70
128
71
15
72
17
73
16
0
VERTEX
8
OBJECT__4
10
0
20
0
30
0
70
128
71
17
72
15
73
18
0
VERTEX
8
OBJECT__4
10
0
20
0
30
0
70
128
71
19
72
18
73
20
0
VERTEX
8
OBJECT__4
10
0
20
0
30
0
70
128
71
21
72
20
73
22
0
VERTEX
8
OBJECT__4
10
0
20
0
30
0
70
128
71
23
72
22
73
24
0
VERTEX
8
OBJECT__4
10
0
20
0
30
0
70
128
71
25
72
26
73
24
0
VERTEX
8
OBJECT__4
10
0
20
0
30
0
70
128
71
2
72
25
73
27
0
VERTEX
8
OBJECT__4
10
0
20
0
30
0
70
128
71
27
72
3
73
2
0
VERTEX
8
OBJECT__4
10
0
20
0
30
0
70
128
71
24
72
27
73
25
0
VERTEX
8
OBJECT__4
10
0
20
0
30
0
70
128
71
24
72
26
73
23
0
VERTEX
8
OBJECT__4
10
0
20
0
30
0
70
128
71
22
72
23
73
21
0
VERTEX
8
OBJECT__4
10
0
20
0
30
0
70
128
71
20
72
21
73
19
0
VERTEX
8
OBJECT__4
10
0
20
0
30
0
70
128
71
18
72
19
73
17
0
VERTEX
8
OBJECT__4
10
0
20
0
30
0
70
128
71
16
72
12
73
14
0
VERTEX
8
OBJECT__4
10
0
20
0
30
0
70
128
71
13
72
14
73
12
0
VERTEX
8
OBJECT__4
10
0
20
0
30
0
70
128
71
11
72
13
73
10
0
VERTEX
8
OBJECT__4
10
0
20
0
30
0
70
128
71
9
72
11
73
8
0
VERTEX
8
OBJECT__4
10
0
20
0
30
0
70
128
71
7
72
9
73
6
0
VERTEX
8
OBJECT__4
10
0
20
0
30
0
70
128
71
5
72
7
73
4
0
VERTEX
8
OBJECT__4
10
0
20
0
30
0
70
128
71
3
72
5
73
1
0
SEQEND
8
OBJECT__4
0
POLYLINE
8
OBJECT__5
66
1
70
64
71
31
72
31
62
253
0
VERTEX
8
OBJECT__5
10
32.400002
20
14.724000
30
9.331000
70
192
0
VERTEX
8
OBJECT__5
10
32.400002
20
12.511000
30
9.669000
70
192
0
VERTEX
8
OBJECT__5
10
32.400002
20
19.167999
30
4.084000
70
192
0
VERTEX
8
OBJECT__5
10
32.400002
20
3.124000
30
13.730000
70
192
0
VERTEX
8
OBJECT__5
10
32.400002
20
4.345000
30
12.641000
70
192
0
VERTEX
8
OBJECT__5
10
32.400002
20
-9.191000
30
12.235000
70
192
0
VERTEX
8
OBJECT__5
10
32.400002
20
-4.345000
30
12.641000
70
192
0
VERTEX
8
OBJECT__5
10
32.400002
20
22.950001
30
0.045000
70
192
0
VERTEX
8
OBJECT__5
10
32.400002
20
-19.400999
30
5.187000
70
192
0
VERTEX
8
OBJECT__5
10
32.400002
20
-19.167999
30
4.084000
70
192
0
VERTEX
8
OBJECT__5
10
32.400002
20
-12.511000
30
9.669000
70
192
0
VERTEX
8
OBJECT__5
10
32.400002
20
-25.166000
30
-5.797000
70
192
0
VERTEX
8
OBJECT__5
10
32.400002
20
-23.513000
30
-3.442000
70
192
0
VERTEX
8
OBJECT__5
10
32.400002
20
-25.166000
30
-18.202999
70
192
0
VERTEX
8
OBJECT__5
10
32.400002
20
-23.513000
30
-20.558001
70
192
0
VERTEX
8
OBJECT__5
10
32.400002
20
-25.021999
30
-12.000000
70
192
0
VERTEX
8
OBJECT__5
10
32.400002
20
-19.400999
30
-29.187000
70
192
0
VERTEX
8
OBJECT__5
10
32.400002
20
-19.167999
30
-28.084000
70
192
0
VERTEX
8
OBJECT__5
10
32.400002
20
3.124000
30
-37.730000
70
192
0
VERTEX
8
OBJECT__5
10
32.400002
20
4.345000
30
-36.640999
70
192
0
VERTEX
8
OBJECT__5
10
32.400002
20
-4.345000
30
-36.640999
70
192
0
VERTEX
8
OBJECT__5
10
32.400002
20
-9.191000
30
-36.235001
70
192
0
VERTEX
8
OBJECT__5
10
32.400002
20
-12.511000
30
-33.668999
70
192
0
VERTEX
8
OBJECT__5
10
32.400002
20
14.724000
30
-33.331001
70
192
0
VERTEX
8
OBJECT__5
10
32.400002
20
12.511000
30
-33.668999
70
192
0
VERTEX
8
OBJECT__5
10
32.400002
20
22.950001
30
-24.045000
70
192
0
VERTEX
8
OBJECT__5
10
32.400002
20
19.167999
30
-28.084000
70
192
0
VERTEX
8
OBJECT__5
10
32.400002
20
23.513000
30
-20.558001
70
192
0
VERTEX
8
OBJECT__5
10
32.400002
20
25.919001
30
-12.000000
70
192
0
VERTEX
8
OBJECT__5
10
32.400002
20
25.021999
30
-12.000000
70
192
0
VERTEX
8
OBJECT__5
10
32.400002
20
23.513000
30
-3.442000
70
192
0
VERTEX
8
OBJECT__5
10
0
20
0
30
0
70
128
71
1
72
2
73
3
0
VERTEX
8
OBJECT__5
10
0
20
0
30
0
70
128
71
4
72
5
73
2
0
VERTEX
8
OBJECT__5
10
0
20
0
30
0
70
128
71
4
72
6
73
7
0
VERTEX
8
OBJECT__5
10
0
20
0
30
0
70
128
71
3
72
8
73
1
0
VERTEX
8
OBJECT__5
10
0
20
0
30
0
70
128
71
7
72
5
73
4
0
VERTEX
8
OBJECT__5
10
0
20
0
30
0
70
128
71
2
72
1
73
4
0
VERTEX
8
OBJECT__5
10
0
20
0
30
0
70
128
71
9
72
10
73
11
0
VERTEX
8
OBJECT__5
10
0
20
0
30
0
70
128
71
9
72
12
73
13
0
VERTEX
8
OBJECT__5
10
0
20
0
30
0
70
128
71
14
72
15
73
16
0
VERTEX
8
OBJECT__5
10
0
20
0
30
0
70
128
71
17
72
18
73
15
0
VERTEX
8
OBJECT__5
10
0
20
0
30
0
70
128
71
19
72
20
73
21
0
VERTEX
8
OBJECT__5
10
0
20
0
30
0
70
128
71
6
72
11
73
7
0
VERTEX
8
OBJECT__5
10
0
20
0
30
0
70
128
71
13
72
10
73
9
0
VERTEX
8
OBJECT__5
10
0
20
0
30
0
70
128
71
15
72
14
73
17
0
VERTEX
8
OBJECT__5
10
0
20
0
30
0
70
128
71
17
72
22
73
23
0
VERTEX
8
OBJECT__5
10
0
20
0
30
0
70
128
71
21
72
22
73
19
0
VERTEX
8
OBJECT__5
10
0
20
0
30
0
70
128
71
19
72
24
73
25
0
VERTEX
8
OBJECT__5
10
0
20
0
30
0
70
128
71
11
72
6
73
9
0
VERTEX
8
OBJECT__5
10
0
20
0
30
0
70
128
71
23
72
18
73
17
0
VERTEX
8
OBJECT__5
10
0
20
0
30
0
70
128
71
25
72
20
73
19
0
VERTEX
8
OBJECT__5
10
0
20
0
30
0
70
128
71
12
72
16
73
13
0
VERTEX
8
OBJECT__5
10
0
20
0
30
0
70
128
71
21
72
23
73
22
0
VERTEX
8
OBJECT__5
10
0
20
0
30
0
70
128
71
24
72
26
73
27
0
VERTEX
8
OBJECT__5
10
0
20
0
30
0
70
128
71
16
72
12
73
14
0
VERTEX
8
OBJECT__5
10
0
20
0
30
0
70
128
71
26
72
28
73
27
0
VERTEX
8
OBJECT__5
10
0
20
0
30
0
70
128
71
27
72
25
73
24
0
VERTEX
8
OBJECT__5
10
0
20
0
30
0
70
128
71
29
72
30
73
28
0
VERTEX
8
OBJECT__5
10
0
20
0
30
0
70
128
71
28
72
26
73
29
0
VERTEX
8
OBJECT__5
10
0
20
0
30
0
70
128
71
3
72
31
73
8
0
VERTEX
8
OBJECT__5
10
0
20
0
30
0
70
128
71
31
72
30
73
8
0
VERTEX
8
OBJECT__5
10
0
20
0
30
0
70
128
71
30
72
29
73
8
0
SEQEND
8
OBJECT__5
0
POLYLINE
8
OBJECT__7
66
1
70
64
71
54
72
72
62
253
0
VERTEX
8
OBJECT__7
10
39.973999
20
19.844999
30
-19.223000
70
192
0
VERTEX
8
OBJECT__7
10
39.973999
20
21.118999
30
-12.000000
70
192
0
VERTEX
8
OBJECT__7
10
45.903000
20
15.000000
30
-12.000000
70
192
0
VERTEX
8
OBJECT__7
10
45.903000
20
14.095000
30
-17.129999
70
192
0
VERTEX
8
OBJECT__7
10
45.903000
20
11.491000
30
-21.642000
70
192
0
VERTEX
8
OBJECT__7
10
39.973999
20
10.560000
30
-30.290001
70
192
0
VERTEX
8
OBJECT__7
10
39.973999
20
16.177999
30
-25.575001
70
192
0
VERTEX
8
OBJECT__7
10
39.973999
20
3.667000
30
-32.798000
70
192
0
VERTEX
8
OBJECT__7
10
45.903000
20
7.500000
30
-24.990000
70
192
0
VERTEX
8
OBJECT__7
10
45.903000
20
2.605000
30
-26.771999
70
192
0
VERTEX
8
OBJECT__7
10
45.903000
20
-2.605000
30
-26.771999
70
192
0
VERTEX
8
OBJECT__7
10
39.973999
20
-10.560000
30
-30.290001
70
192
0
VERTEX
8
OBJECT__7
10
39.973999
20
-3.667000
30
-32.798000
70
192
0
VERTEX
8
OBJECT__7
10
39.973999
20
-16.177999
30
-25.575001
70
192
0
VERTEX
8
OBJECT__7
10
45.903000
20
-7.500000
30
-24.990000
70
192
0
VERTEX
8
OBJECT__7
10
45.903000
20
-11.491000
30
-21.642000
70
192
0
VERTEX
8
OBJECT__7
10
45.903000
20
-14.095000
30
-17.129999
70
192
0
VERTEX
8
OBJECT__7
10
39.973999
20
-21.118999
30
-12.000000
70
192
0
VERTEX
8
OBJECT__7
10
39.973999
20
-19.844999
30
-19.223000
70
192
0
VERTEX
8
OBJECT__7
10
39.973999
20
-19.844999
30
-4.777000
70
192
0
VERTEX
8
OBJECT__7
10
45.903000
20
-15.000000
30
-12.000000
70
192
0
VERTEX
8
OBJECT__7
10
39.973999
20
-16.177999
30
1.575000
70
192
0
VERTEX
8
OBJECT__7
10
45.903000
20
-14.095000
30
-6.870000
70
192
0
VERTEX
8
OBJECT__7
10
45.903000
20
-11.491000
30
-2.358000
70
192
0
VERTEX
8
OBJECT__7
10
45.903000
20
-7.500000
30
0.990000
70
192
0
VERTEX
8
OBJECT__7
10
39.973999
20
-3.667000
30
8.798000
70
192
0
VERTEX
8
OBJECT__7
10
39.973999
20
-10.560000
30
6.290000
70
192
0
VERTEX
8
OBJECT__7
10
45.903000
20
-2.605000
30
2.772000
70
192
0
VERTEX
8
OBJECT__7
10
45.903000
20
2.605000
30
2.772000
70
192
0
VERTEX
8
OBJECT__7
10
39.973999
20
10.560000
30
6.290000
70
192
0
VERTEX
8
OBJECT__7
10
39.973999
20
3.667000
30
8.798000
70
192
0
VERTEX
8
OBJECT__7
10
45.903000
20
7.500000
30
0.990000
70
192
0
VERTEX
8
OBJECT__7
10
45.903000
20
11.491000
30
-2.358000
70
192
0
VERTEX
8
OBJECT__7
10
39.973999
20
16.177999
30
1.575000
70
192
0
VERTEX
8
OBJECT__7
10
45.903000
20
14.095000
30
-6.870000
70
192
0
VERTEX
8
OBJECT__7
10
39.973999
20
19.844999
30
-4.777000
70
192
0
VERTEX
8
OBJECT__7
10
32.400002
20
25.021999
30
-12.000000
70
192
0
VERTEX
8
OBJECT__7
10
32.400002
20
19.167999
30
-28.084000
70
192
0
VERTEX
8
OBJECT__7
10
32.400002
20
23.513000
30
-20.558001
70
192
0
VERTEX
8
OBJECT__7
10
32.400002
20
12.511000
30
-33.668999
70
192
0
VERTEX
8
OBJECT__7
10
32.400002
20
4.345000
30
-36.640999
70
192
0
VERTEX
8
OBJECT__7
10
32.400002
20
-4.345000
30
-36.640999
70
192
0
VERTEX
8
OBJECT__7
10
32.400002
20
-12.511000
30
-33.668999
70
192
0
VERTEX
8
OBJECT__7
10
32.400002
20
-19.167999
30
-28.084000
70
192
0
VERTEX
8
OBJECT__7
10
32.400002
20
-25.021999
30
-12.000000
70
192
0
VERTEX
8
OBJECT__7
10
32.400002
20
-23.513000
30
-20.558001
70
192
0
VERTEX
8
OBJECT__7
10
32.400002
20
-23.513000
30
-3.442000
70
192
0
VERTEX
8
OBJECT__7
10
32.400002
20
-19.167999
30
4.084000
70
192
0
VERTEX
8
OBJECT__7
10
32.400002
20
-12.511000
30
9.669000
70
192
0
VERTEX
8
OBJECT__7
10
32.400002
20
-4.345000
30
12.641000
70
192
0
VERTEX
8
OBJECT__7
10
32.400002
20
4.345000
30
12.641000
70
192
0
VERTEX
8
OBJECT__7
10
32.400002
20
12.511000
30
9.669000
70
192
0
VERTEX
8
OBJECT__7
10
32.400002
20
19.167999
30
4.084000
70
192
0
VERTEX
8
OBJECT__7
10
32.400002
20
23.513000
30
-3.442000
70
192
0
VERTEX
8
OBJECT__7
10
0
20
0
30
0
70
128
71
1
72
2
73
3
0
VERTEX
8
OBJECT__7
10
0
20
0
30
0
70
128
71
1
72
4
73
5
0
VERTEX
8
OBJECT__7
10
0
20
0
30
0
70
128
71
6
72
7
73
5
0
VERTEX
8
OBJECT__7
10
0
20
0
30
0
70
128
71
8
72
6
73
9
0
VERTEX
8
OBJECT__7
10
0
20
0
30
0
70
128
71
8
72
10
73
11
0
VERTEX
8
OBJECT__7
10
0
20
0
30
0
70
128
71
12
72
13
73
11
0
VERTEX
8
OBJECT__7
10
0
20
0
30
0
70
128
71
14
72
12
73
15
0
VERTEX
8
OBJECT__7
10
0
20
0
30
0
70
128
71
14
72
16
73
17
0
VERTEX
8
OBJECT__7
10
0
20
0
30
0
70
128
71
18
72
19
73
17
0
VERTEX
8
OBJECT__7
10
0
20
0
30
0
70
128
71
20
72
18
73
21
0
VERTEX
8
OBJECT__7
10
0
20
0
30
0
70
128
71
22
72
20
73
23
0
VERTEX
8
OBJECT__7
10
0
20
0
30
0
70
128
71
22
72
24
73
25
0
VERTEX
8
OBJECT__7
10
0
20
0
30
0
70
128
71
26
72
27
73
25
0
VERTEX
8
OBJECT__7
10
0
20
0
30
0
70
128
71
26
72
28
73
29
0
VERTEX
8
OBJECT__7
10
0
20
0
30
0
70
128
71
30
72
31
73
29
0
VERTEX
8
OBJECT__7
10
0
20
0
30
0
70
128
71
30
72
32
73
33
0
VERTEX
8
OBJECT__7
10
0
20
0
30
0
70
128
71
34
72
33
73
35
0
VERTEX
8
OBJECT__7
10
0
20
0
30
0
70
128
71
2
72
36
73
35
0
VERTEX
8
OBJECT__7
10
0
20
0
30
0
70
128
71
37
72
2
73
1
0
VERTEX
8
OBJECT__7
10
0
20
0
30
0
70
128
71
38
72
39
73
1
0
VERTEX
8
OBJECT__7
10
0
20
0
30
0
70
128
71
40
72
38
73
7
0
VERTEX
8
OBJECT__7
10
0
20
0
30
0
70
128
71
41
72
40
73
6
0
VERTEX
8
OBJECT__7
10
0
20
0
30
0
70
128
71
42
72
41
73
8
0
VERTEX
8
OBJECT__7
10
0
20
0
30
0
70
128
71
43
72
42
73
13
0
VERTEX
8
OBJECT__7
10
0
20
0
30
0
70
128
71
43
72
12
73
14
0
VERTEX
8
OBJECT__7
10
0
20
0
30
0
70
128
71
44
72
14
73
19
0
VERTEX
8
OBJECT__7
10
0
20
0
30
0
70
128
71
45
72
46
73
19
0
VERTEX
8
OBJECT__7
10
0
20
0
30
0
70
128
71
45
72
18
73
20
0
VERTEX
8
OBJECT__7
10
0
20
0
30
0
70
128
71
47
72
20
73
22
0
VERTEX
8
OBJECT__7
10
0
20
0
30
0
70
128
71
48
72
22
73
27
0
VERTEX
8
OBJECT__7
10
0
20
0
30
0
70
128
71
49
72
27
73
26
0
VERTEX
8
OBJECT__7
10
0
20
0
30
0
70
128
71
50
72
26
73
31
0
VERTEX
8
OBJECT__7
10
0
20
0
30
0
70
128
71
51
72
31
73
30
0
VERTEX
8
OBJECT__7
10
0
20
0
30
0
70
128
71
52
72
30
73
34
0
VERTEX
8
OBJECT__7
10
0
20
0
30
0
70
128
71
53
72
34
73
36
0
VERTEX
8
OBJECT__7
10
0
20
0
30
0
70
128
71
37
72
54
73
36
0
VERTEX
8
OBJECT__7
10
0
20
0
30
0
70
128
71
36
72
2
73
37
0
VERTEX
8
OBJECT__7
10
0
20
0
30
0
70
128
71
36
72
54
73
53
0
VERTEX
8
OBJECT__7
10
0
20
0
30
0
70
128
71
34
72
53
73
52
0
VERTEX
8
OBJECT__7
10
0
20
0
30
0
70
128
71
30
72
52
73
51
0
VERTEX
8
OBJECT__7
10
0
20
0
30
0
70
128
71
31
72
51
73
50
0
VERTEX
8
OBJECT__7
10
0
20
0
30
0
70
128
71
26
72
50
73
49
0
VERTEX
8
OBJECT__7
10
0
20
0
30
0
70
128
71
27
72
49
73
48
0
VERTEX
8
OBJECT__7
10
0
20
0
30
0
70
128
71
22
72
48
73
47
0
VERTEX
8
OBJECT__7
10
0
20
0
30
0
70
128
71
20
72
47
73
45
0
VERTEX
8
OBJECT__7
10
0
20
0
30
0
70
128
71
19
72
18
73
45
0
VERTEX
8
OBJECT__7
10
0
20
0
30
0
70
128
71
19
72
46
73
44
0
VERTEX
8
OBJECT__7
10
0
20
0
30
0
70
128
71
14
72
44
73
43
0
VERTEX
8
OBJECT__7
10
0
20
0
30
0
70
128
71
13
72
12
73
43
0
VERTEX
8
OBJECT__7
10
0
20
0
30
0
70
128
71
8
72
13
73
42
0
VERTEX
8
OBJECT__7
10
0
20
0
30
0
70
128
71
6
72
8
73
41
0
VERTEX
8
OBJECT__7
10
0
20
0
30
0
70
128
71
7
72
6
73
40
0
VERTEX
8
OBJECT__7
10
0
20
0
30
0
70
128
71
1
72
7
73
38
0
VERTEX
8
OBJECT__7
10
0
20
0
30
0
70
128
71
1
72
39
73
37
0
VERTEX
8
OBJECT__7
10
0
20
0
30
0
70
128
71
35
72
3
73
2
0
VERTEX
8
OBJECT__7
10
0
20
0
30
0
70
128
71
35
72
36
73
34
0
VERTEX
8
OBJECT__7
10
0
20
0
30
0
70
128
71
33
72
34
73
30
0
VERTEX
8
OBJECT__7
10
0
20
0
30
0
70
128
71
29
72
32
73
30
0
VERTEX
8
OBJECT__7
10
0
20
0
30
0
70
128
71
29
72
31
73
26
0
VERTEX
8
OBJECT__7
10
0
20
0
30
0
70
128
71
25
72
28
73
26
0
VERTEX
8
OBJECT__7
10
0
20
0
30
0
70
128
71
25
72
27
73
22
0
VERTEX
8
OBJECT__7
10
0
20
0
30
0
70
128
71
23
72
24
73
22
0
VERTEX
8
OBJECT__7
10
0
20
0
30
0
70
128
71
21
72
23
73
20
0
VERTEX
8
OBJECT__7
10
0
20
0
30
0
70
128
71
17
72
21
73
18
0
VERTEX
8
OBJECT__7
10
0
20
0
30
0
70
128
71
17
72
19
73
14
0
VERTEX
8
OBJECT__7
10
0
20
0
30
0
70
128
71
15
72
16
73
14
0
VERTEX
8
OBJECT__7
10
0
20
0
30
0
70
128
71
11
72
15
73
12
0
VERTEX
8
OBJECT__7
10
0
20
0
30
0
70
128
71
11
72
13
73
8
0
VERTEX
8
OBJECT__7
10
0
20
0
30
0
70
128
71
9
72
10
73
8
0
VERTEX
8
OBJECT__7
10
0
20
0
30
0
70
128
71
5
72
9
73
6
0
VERTEX
8
OBJECT__7
10
0
20
0
30
0
70
128
71
5
72
7
73
1
0
VERTEX
8
OBJECT__7
10
0
20
0
30
0
70
128
71
3
72
4
73
1
0
SEQEND
8
OBJECT__7
0
POLYLINE
8
OBJECT__8
66
1
70
64
71
28
72
28
62
253
0
VERTEX
8
OBJECT__8
10
12.897000
20
28.830999
30
-25.884001
70
192
0
VERTEX
8
OBJECT__8
10
12.897000
20
32.000000
30
-12.000000
70
192
0
VERTEX
8
OBJECT__8
10
15.997000
20
30.000000
30
-12.000000
70
192
0
VERTEX
8
OBJECT__8
10
12.897000
20
19.952000
30
-37.019001
70
192
0
VERTEX
8
OBJECT__8
10
15.997000
20
27.028999
30
-25.017000
70
192
0
VERTEX
8
OBJECT__8
10
12.897000
20
7.121000
30
-43.198002
70
192
0
VERTEX
8
OBJECT__8
10
15.997000
20
18.705000
30
-35.455002
70
192
0
VERTEX
8
OBJECT__8
10
12.897000
20
-7.121000
30
-43.198002
70
192
0
VERTEX
8
OBJECT__8
10
15.997000
20
6.676000
30
-41.248001
70
192
0
VERTEX
8
OBJECT__8
10
12.897000
20
-19.952000
30
-37.019001
70
192
0
VERTEX
8
OBJECT__8
10
15.997000
20
-6.676000
30
-41.248001
70
192
0
VERTEX
8
OBJECT__8
10
12.897000
20
-28.830999
30
-25.884001
70
192
0
VERTEX
8
OBJECT__8
10
15.997000
20
-18.705000
30
-35.455002
70
192
0
VERTEX
8
OBJECT__8
10
12.897000
20
-32.000000
30
-12.000000
70
192
0
VERTEX
8
OBJECT__8
10
15.997000
20
-27.028999
30
-25.017000
70
192
0
VERTEX
8
OBJECT__8
10
15.997000
20
-30.000000
30
-12.000000
70
192
0
VERTEX
8
OBJECT__8
10
15.997000
20
-27.028999
30
1.017000
70
192
0
VERTEX
8
OBJECT__8
10
12.897000
20
-28.830999
30
1.884000
70
192
0
VERTEX
8
OBJECT__8
10
15.997000
20
-18.705000
30
11.455000
70
192
0
VERTEX
8
OBJECT__8
10
12.897000
20
-19.952000
30
13.019000
70
192
0
VERTEX
8
OBJECT__8
10
15.997000
20
-6.676000
30
17.247999
70
192
0
VERTEX
8
OBJECT__8
10
12.897000
20
7.121000
30
19.198000
70
192
0
VERTEX
8
OBJECT__8
10
12.897000
20
-7.121000
30
19.198000
70
192
0
VERTEX
8
OBJECT__8
10
15.997000
20
6.676000
30
17.247999
70
192
0
VERTEX
8
OBJECT__8
10
15.997000
20
18.705000
30
11.455000
70
192
0
VERTEX
8
OBJECT__8
10
12.897000
20
19.952000
30
13.019000
70
192
0
VERTEX
8
OBJECT__8
10
15.997000
20
27.028999
30
1.017000
70
192
0
VERTEX
8
OBJECT__8
10
12.897000
20
28.830999
30
1.884000
70
192
0
VERTEX
8
OBJECT__8
10
0
20
0
30
0
70
128
71
1
72
2
73
3
0
VERTEX
8
OBJECT__8
10
0
20
0
30
0
70
128
71
4
72
1
73
5
0
VERTEX
8
OBJECT__8
10
0
20
0
30
0
70
128
71
6
72
4
73
7
0
VERTEX
8
OBJECT__8
10
0
20
0
30
0
70
128
71
8
72
6
73
9
0
VERTEX
8
OBJECT__8
10
0
20
0
30
0
70
128
71
10
72
8
73
11
0
VERTEX
8
OBJECT__8
10
0
20
0
30
0
70
128
71
12
72
10
73
13
0
VERTEX
8
OBJECT__8
10
0
20
0
30
0
70
128
71
14
72
12
73
15
0
VERTEX
8
OBJECT__8
10
0
20
0
30
0
70
128
71
14
72
16
73
17
0
VERTEX
8
OBJECT__8
10
0
20
0
30
0
70
128
71
18
72
17
73
19
0
VERTEX
8
OBJECT__8
10
0
20
0
30
0
70
128
71
20
72
19
73
21
0
VERTEX
8
OBJECT__8
10
0
20
0
30
0
70
128
71
22
72
23
73
21
0
VERTEX
8
OBJECT__8
10
0
20
0
30
0
70
128
71
22
72
24
73
25
0
VERTEX
8
OBJECT__8
10
0
20
0
30
0
70
128
71
26
72
25
73
27
0
VERTEX
8
OBJECT__8
10
0
20
0
30
0
70
128
71
2
72
28
73
27
0
VERTEX
8
OBJECT__8
10
0
20
0
30
0
70
128
71
27
72
3
73
2
0
VERTEX
8
OBJECT__8
10
0
20
0
30
0
70
128
71
27
72
28
73
26
0
VERTEX
8
OBJECT__8
10
0
20
0
30
0
70
128
71
25
72
26
73
22
0
VERTEX
8
OBJECT__8
10
0
20
0
30
0
70
128
71
21
72
24
73
22
0
VERTEX
8
OBJECT__8
10
0
20
0
30
0
70
128
71
21
72
23
73
20
0
VERTEX
8
OBJECT__8
10
0
20
0
30
0
70
128
71
19
72
20
73
18
0
VERTEX
8
OBJECT__8
10
0
20
0
30
0
70
128
71
17
72
18
73
14
0
VERTEX
8
OBJECT__8
10
0
20
0
30
0
70
128
71
15
72
16
73
14
0
VERTEX
8
OBJECT__8
10
0
20
0
30
0
70
128
71
13
72
15
73
12
0
VERTEX
8
OBJECT__8
10
0
20
0
30
0
70
128
71
11
72
13
73
10
0
VERTEX
8
OBJECT__8
10
0
20
0
30
0
70
128
71
9
72
11
73
8
0
VERTEX
8
OBJECT__8
10
0
20
0
30
0
70
128
71
7
72
9
73
6
0
VERTEX
8
OBJECT__8
10
0
20
0
30
0
70
128
71
5
72
7
73
4
0
VERTEX
8
OBJECT__8
10
0
20
0
30
0
70
128
71
3
72
5
73
1
0
SEQEND
8
OBJECT__8
0
POLYLINE
8
OBJECT__9
66
1
70
64
71
28
72
28
62
253
0
VERTEX
8
OBJECT__9
10
15.997000
20
-27.028999
30
-25.017000
70
192
0
VERTEX
8
OBJECT__9
10
16.297001
20
-27.028999
30
-25.017000
70
192
0
VERTEX
8
OBJECT__9
10
16.297001
20
-30.000000
30
-12.000000
70
192
0
VERTEX
8
OBJECT__9
10
15.997000
20
-18.705000
30
-35.455002
70
192
0
VERTEX
8
OBJECT__9
10
16.297001
20
-18.705000
30
-35.455002
70
192
0
VERTEX
8
OBJECT__9
10
15.997000
20
-6.676000
30
-41.248001
70
192
0
VERTEX
8
OBJECT__9
10
16.297001
20
-6.676000
30
-41.248001
70
192
0
VERTEX
8
OBJECT__9
10
15.997000
20
6.676000
30
-41.248001
70
192
0
VERTEX
8
OBJECT__9
10
16.297001
20
6.676000
30
-41.248001
70
192
0
VERTEX
8
OBJECT__9
10
15.997000
20
18.705000
30
-35.455002
70
192
0
VERTEX
8
OBJECT__9
10
16.297001
20
18.705000
30
-35.455002
70
192
0
VERTEX
8
OBJECT__9
10
15.997000
20
27.028999
30
-25.017000
70
192
0
VERTEX
8
OBJECT__9
10
16.297001
20
27.028999
30
-25.017000
70
192
0
VERTEX
8
OBJECT__9
10
15.997000
20
30.000000
30
-12.000000
70
192
0
VERTEX
8
OBJECT__9
10
16.297001
20
30.000000
30
-12.000000
70
192
0
VERTEX
8
OBJECT__9
10
16.297001
20
27.028999
30
1.017000
70
192
0
VERTEX
8
OBJECT__9
10
16.297001
20
18.705000
30
11.455000
70
192
0
VERTEX
8
OBJECT__9
10
15.997000
20
27.028999
30
1.017000
70
192
0
VERTEX
8
OBJECT__9
10
16.297001
20
6.676000
30
17.247999
70
192
0
VERTEX
8
OBJECT__9
10
15.997000
20
18.705000
30
11.455000
70
192
0
VERTEX
8
OBJECT__9
10
16.297001
20
-6.676000
30
17.247999
70
192
0
VERTEX
8
OBJECT__9
10
15.997000
20
6.676000
30
17.247999
70
192
0
VERTEX
8
OBJECT__9
10
15.997000
20
-18.705000
30
11.455000
70
192
0
VERTEX
8
OBJECT__9
10
16.297001
20
-18.705000
30
11.455000
70
192
0
VERTEX
8
OBJECT__9
10
15.997000
20
-27.028999
30
1.017000
70
192
0
VERTEX
8
OBJECT__9
10
16.297001
20
-27.028999
30
1.017000
70
192
0
VERTEX
8
OBJECT__9
10
15.997000
20
-30.000000
30
-12.000000
70
192
0
VERTEX
8
OBJECT__9
10
15.997000
20
-6.676000
30
17.247999
70
192
0
VERTEX
8
OBJECT__9
10
0
20
0
30
0
70
128
71
1
72
2
73
3
0
VERTEX
8
OBJECT__9
10
0
20
0
30
0
70
128
71
4
72
5
73
2
0
VERTEX
8
OBJECT__9
10
0
20
0
30
0
70
128
71
6
72
7
73
5
0
VERTEX
8
OBJECT__9
10
0
20
0
30
0
70
128
71
8
72
9
73
7
0
VERTEX
8
OBJECT__9
10
0
20
0
30
0
70
128
71
10
72
11
73
9
0
VERTEX
8
OBJECT__9
10
0
20
0
30
0
70
128
71
12
72
13
73
11
0
VERTEX
8
OBJECT__9
10
0
20
0
30
0
70
128
71
14
72
15
73
13
0
VERTEX
8
OBJECT__9
10
0
20
0
30
0
70
128
71
16
72
15
73
14
0
VERTEX
8
OBJECT__9
10
0
20
0
30
0
70
128
71
17
72
16
73
18
0
VERTEX
8
OBJECT__9
10
0
20
0
30
0
70
128
71
19
72
17
73
20
0
VERTEX
8
OBJECT__9
10
0
20
0
30
0
70
128
71
21
72
19
73
22
0
VERTEX
8
OBJECT__9
10
0
20
0
30
0
70
128
71
23
72
24
73
21
0
VERTEX
8
OBJECT__9
10
0
20
0
30
0
70
128
71
25
72
26
73
24
0
VERTEX
8
OBJECT__9
10
0
20
0
30
0
70
128
71
27
72
3
73
26
0
VERTEX
8
OBJECT__9
10
0
20
0
30
0
70
128
71
26
72
25
73
27
0
VERTEX
8
OBJECT__9
10
0
20
0
30
0
70
128
71
24
72
23
73
25
0
VERTEX
8
OBJECT__9
10
0
20
0
30
0
70
128
71
21
72
28
73
23
0
VERTEX
8
OBJECT__9
10
0
20
0
30
0
70
128
71
22
72
28
73
21
0
VERTEX
8
OBJECT__9
10
0
20
0
30
0
70
128
71
20
72
22
73
19
0
VERTEX
8
OBJECT__9
10
0
20
0
30
0
70
128
71
18
72
20
73
17
0
VERTEX
8
OBJECT__9
10
0
20
0
30
0
70
128
71
14
72
18
73
16
0
VERTEX
8
OBJECT__9
10
0
20
0
30
0
70
128
71
13
72
12
73
14
0
VERTEX
8
OBJECT__9
10
0
20
0
30
0
70
128
71
11
72
10
73
12
0
VERTEX
8
OBJECT__9
10
0
20
0
30
0
70
128
71
9
72
8
73
10
0
VERTEX
8
OBJECT__9
10
0
20
0
30
0
70
128
71
7
72
6
73
8
0
VERTEX
8
OBJECT__9
10
0
20
0
30
0
70
128
71
5
72
4
73
6
0
VERTEX
8
OBJECT__9
10
0
20
0
30
0
70
128
71
2
72
1
73
4
0
VERTEX
8
OBJECT__9
10
0
20
0
30
0
70
128
71
3
72
27
73
1
0
SEQEND
8
OBJECT__9
0
POLYLINE
8
OBJECT__11
66
1
70
64
71
28
72
28
62
253
0
VERTEX
8
OBJECT__11
10
16.297001
20
27.028999
30
-25.017000
70
192
0
VERTEX
8
OBJECT__11
10
16.297001
20
30.000000
30
-12.000000
70
192
0
VERTEX
8
OBJECT__11
10
17.997000
20
25.450001
30
-12.000000
70
192
0
VERTEX
8
OBJECT__11
10
16.297001
20
18.705000
30
-35.455002
70
192
0
VERTEX
8
OBJECT__11
10
17.997000
20
22.930000
30
-23.042000
70
192
0
VERTEX
8
OBJECT__11
10
17.997000
20
15.868000
30
-31.898001
70
192
0
VERTEX
8
OBJECT__11
10
17.997000
20
5.663000
30
-36.812000
70
192
0
VERTEX
8
OBJECT__11
10
16.297001
20
-6.676000
30
-41.248001
70
192
0
VERTEX
8
OBJECT__11
10
16.297001
20
6.676000
30
-41.248001
70
192
0
VERTEX
8
OBJECT__11
10
16.297001
20
-18.705000
30
-35.455002
70
192
0
VERTEX
8
OBJECT__11
10
17.997000
20
-5.663000
30
-36.812000
70
192
0
VERTEX
8
OBJECT__11
10
17.997000
20
-15.868000
30
-31.898001
70
192
0
VERTEX
8
OBJECT__11
10
17.997000
20
-22.930000
30
-23.042000
70
192
0
VERTEX
8
OBJECT__11
10
16.297001
20
-27.028999
30
-25.017000
70
192
0
VERTEX
8
OBJECT__11
10
17.997000
20
-25.450001
30
-12.000000
70
192
0
VERTEX
8
OBJECT__11
10
16.297001
20
-27.028999
30
1.017000
70
192
0
VERTEX
8
OBJECT__11
10
16.297001
20
-30.000000
30
-12.000000
70
192
0
VERTEX
8
OBJECT__11
10
16.297001
20
-18.705000
30
11.455000
70
192
0
VERTEX
8
OBJECT__11
10
17.997000
20
-22.930000
30
-0.958000
70
192
0
VERTEX
8
OBJECT__11
10
16.297001
20
-6.676000
30
17.247999
70
192
0
VERTEX
8
OBJECT__11
10
17.997000
20
-15.868000
30
7.898000
70
192
0
VERTEX
8
OBJECT__11
10
16.297001
20
6.676000
30
17.247999
70
192
0
VERTEX
8
OBJECT__11
10
17.997000
20
-5.663000
30
12.812000
70
192
0
VERTEX
8
OBJECT__11
10
16.297001
20
18.705000
30
11.455000
70
192
0
VERTEX
8
OBJECT__11
10
17.997000
20
5.663000
30
12.812000
70
192
0
VERTEX
8
OBJECT__11
10
16.297001
20
27.028999
30
1.017000
70
192
0
VERTEX
8
OBJECT__11
10
17.997000
20
15.868000
30
7.898000
70
192
0
VERTEX
8
OBJECT__11
10
17.997000
20
22.930000
30
-0.958000
70
192
0
VERTEX
8
OBJECT__11
10
0
20
0
30
0
70
128
71
1
72
2
73
3
0
VERTEX
8
OBJECT__11
10
0
20
0
30
0
70
128
71
4
72
1
73
5
0
VERTEX
8
OBJECT__11
10
0
20
0
30
0
70
128
71
4
72
6
73
7
0
VERTEX
8
OBJECT__11
10
0
20
0
30
0
70
128
71
8
72
9
73
7
0
VERTEX
8
OBJECT__11
10
0
20
0
30
0
70
128
71
10
72
8
73
11
0
VERTEX
8
OBJECT__11
10
0
20
0
30
0
70
128
71
10
72
12
73
13
0
VERTEX
8
OBJECT__11
10
0
20
0
30
0
70
128
71
14
72
13
73
15
0
VERTEX
8
OBJECT__11
10
0
20
0
30
0
70
128
71
16
72
17
73
15
0
VERTEX
8
OBJECT__11
10
0
20
0
30
0
70
128
71
18
72
16
73
19
0
VERTEX
8
OBJECT__11
10
0
20
0
30
0
70
128
71
20
72
18
73
21
0
VERTEX
8
OBJECT__11
10
0
20
0
30
0
70
128
71
22
72
20
73
23
0
VERTEX
8
OBJECT__11
10
0
20
0
30
0
70
128
71
24
72
22
73
25
0
VERTEX
8
OBJECT__11
10
0
20
0
30
0
70
128
71
26
72
24
73
27
0
VERTEX
8
OBJECT__11
10
0
20
0
30
0
70
128
71
2
72
26
73
28
0
VERTEX
8
OBJECT__11
10
0
20
0
30
0
70
128
71
28
72
3
73
2
0
VERTEX
8
OBJECT__11
10
0
20
0
30
0
70
128
71
27
72
28
73
26
0
VERTEX
8
OBJECT__11
10
0
20
0
30
0
70
128
71
25
72
27
73
24
0
VERTEX
8
OBJECT__11
10
0
20
0
30
0
70
128
71
23
72
25
73
22
0
VERTEX
8
OBJECT__11
10
0
20
0
30
0
70
128
71
21
72
23
73
20
0
VERTEX
8
OBJECT__11
10
0
20
0
30
0
70
128
71
19
72
21
73
18
0
VERTEX
8
OBJECT__11
10
0
20
0
30
0
70
128
71
15
72
19
73
16
0
VERTEX
8
OBJECT__11
10
0
20
0
30
0
70
128
71
15
72
17
73
14
0
VERTEX
8
OBJECT__11
10
0
20
0
30
0
70
128
71
13
72
14
73
10
0
VERTEX
8
OBJECT__11
10
0
20
0
30
0
70
128
71
11
72
12
73
10
0
VERTEX
8
OBJECT__11
10
0
20
0
30
0
70
128
71
7
72
11
73
8
0
VERTEX
8
OBJECT__11
10
0
20
0
30
0
70
128
71
7
72
9
73
4
0
VERTEX
8
OBJECT__11
10
0
20
0
30
0
70
128
71
5
72
6
73
4
0
VERTEX
8
OBJECT__11
10
0
20
0
30
0
70
128
71
3
72
5
73
1
0
SEQEND
8
OBJECT__11
0
POLYLINE
8
OBJECT__12
66
1
70
64
71
37
72
37
62
253
0
VERTEX
8
OBJECT__12
10
75.372002
20
4.838000
30
-81.785004
70
192
0
VERTEX
8
OBJECT__12
10
75.385002
20
-5.493000
30
-78.556999
70
192
0
VERTEX
8
OBJECT__12
10
75.509003
20
-7.799000
30
-80.850998
70
192
0
VERTEX
8
OBJECT__12
10
75.321999
20
-0.008000
30
-76.843002
70
192
0
VERTEX
8
OBJECT__12
10
75.332001
20
-2.712000
30
-77.186996
70
192
0
VERTEX
8
OBJECT__12
10
75.723999
20
-9.252000
30
-83.820000
70
192
0
VERTEX
8
OBJECT__12
10
75.982002
20
-9.641000
30
-86.663002
70
192
0
VERTEX
8
OBJECT__12
10
75.987000
20
9.548000
30
-86.662003
70
192
0
VERTEX
8
OBJECT__12
10
75.830002
20
9.535000
30
-85.049004
70
192
0
VERTEX
8
OBJECT__12
10
75.580002
20
8.473000
30
-81.924004
70
192
0
VERTEX
8
OBJECT__12
10
75.861000
20
9.584000
30
-85.397003
70
192
0
VERTEX
8
OBJECT__12
10
75.320999
20
0.821000
30
-76.815002
70
192
0
VERTEX
8
OBJECT__12
10
75.320999
20
0.425000
30
-76.788002
70
192
0
VERTEX
8
OBJECT__12
10
75.343002
20
3.630000
30
-77.517998
70
192
0
VERTEX
8
OBJECT__12
10
75.348999
20
3.963000
30
-77.666000
70
192
0
VERTEX
8
OBJECT__12
10
75.420998
20
6.428000
30
-79.307999
70
192
0
VERTEX
8
OBJECT__12
10
75.432999
20
6.680000
30
-79.544998
70
192
0
VERTEX
8
OBJECT__12
10
75.746002
20
0.212000
30
-88.361000
70
192
0
VERTEX
8
OBJECT__12
10
76.196999
20
9.422000
30
-88.741997
70
192
0
VERTEX
8
OBJECT__12
10
76.155998
20
9.500000
30
-88.360001
70
192
0
VERTEX
8
OBJECT__12
10
76.337997
20
8.945000
30
-89.960999
70
192
0
VERTEX
8
OBJECT__12
10
77.072998
20
3.511000
30
-95.722000
70
192
0
VERTEX
8
OBJECT__12
10
76.841003
20
6.233000
30
-94.047997
70
192
0
VERTEX
8
OBJECT__12
10
76.515999
20
8.340000
30
-91.504997
70
192
0
VERTEX
8
OBJECT__12
10
77.091003
20
3.183000
30
-95.848999
70
192
0
VERTEX
8
OBJECT__12
10
77.170998
20
-0.008000
30
-96.392998
70
192
0
VERTEX
8
OBJECT__12
10
77.175003
20
0.377000
30
-96.416000
70
192
0
VERTEX
8
OBJECT__12
10
77.000999
20
-4.563000
30
-95.213997
70
192
0
VERTEX
8
OBJECT__12
10
77.147003
20
-1.842000
30
-96.232002
70
192
0
VERTEX
8
OBJECT__12
10
76.974998
20
-4.878000
30
-95.031998
70
192
0
VERTEX
8
OBJECT__12
10
76.375999
20
-8.918000
30
-90.327003
70
192
0
VERTEX
8
OBJECT__12
10
76.719002
20
-7.170000
30
-93.120003
70
192
0
VERTEX
8
OBJECT__12
10
76.338997
20
-9.041000
30
-90.013000
70
192
0
VERTEX
8
OBJECT__12
10
76.334000
20
-9.051000
30
-89.962997
70
192
0
VERTEX
8
OBJECT__12
10
77.160004
20
-1.391000
30
-96.314003
70
192
0
VERTEX
8
OBJECT__12
10
75.990997
20
-9.654000
30
-86.761002
70
192
0
VERTEX
8
OBJECT__12
10
76.026001
20
-9.642000
30
-87.111000
70
192
0
VERTEX
8
OBJECT__12
10
0
20
0
30
0
70
128
71
1
72
2
73
3
0
VERTEX
8
OBJECT__12
10
0
20
0
30
0
70
128
71
1
72
4
73
5
0
VERTEX
8
OBJECT__12
10
0
20
0
30
0
70
128
71
5
72
2
73
1
0
VERTEX
8
OBJECT__12
10
0
20
0
30
0
70
128
71
3
72
6
73
1
0
VERTEX
8
OBJECT__12
10
0
20
0
30
0
70
128
71
7
72
8
73
1
0
VERTEX
8
OBJECT__12
10
0
20
0
30
0
70
128
71
1
72
9
73
10
0
VERTEX
8
OBJECT__12
10
0
20
0
30
0
70
128
71
1
72
11
73
9
0
VERTEX
8
OBJECT__12
10
0
20
0
30
0
70
128
71
1
72
8
73
11
0
VERTEX
8
OBJECT__12
10
0
20
0
30
0
70
128
71
1
72
12
73
13
0
VERTEX
8
OBJECT__12
10
0
20
0
30
0
70
128
71
1
72
14
73
12
0
VERTEX
8
OBJECT__12
10
0
20
0
30
0
70
128
71
1
72
15
73
14
0
VERTEX
8
OBJECT__12
10
0
20
0
30
0
70
128
71
1
72
16
73
15
0
VERTEX
8
OBJECT__12
10
0
20
0
30
0
70
128
71
1
72
17
73
16
0
VERTEX
8
OBJECT__12
10
0
20
0
30
0
70
128
71
13
72
4
73
1
0
VERTEX
8
OBJECT__12
10
0
20
0
30
0
70
128
71
10
72
17
73
1
0
VERTEX
8
OBJECT__12
10
0
20
0
30
0
70
128
71
18
72
19
73
20
0
VERTEX
8
OBJECT__12
10
0
20
0
30
0
70
128
71
18
72
21
73
19
0
VERTEX
8
OBJECT__12
10
0
20
0
30
0
70
128
71
18
72
22
73
23
0
VERTEX
8
OBJECT__12
10
0
20
0
30
0
70
128
71
23
72
24
73
18
0
VERTEX
8
OBJECT__12
10
0
20
0
30
0
70
128
71
18
72
25
73
22
0
VERTEX
8
OBJECT__12
10
0
20
0
30
0
70
128
71
18
72
26
73
27
0
VERTEX
8
OBJECT__12
10
0
20
0
30
0
70
128
71
27
72
25
73
18
0
VERTEX
8
OBJECT__12
10
0
20
0
30
0
70
128
71
24
72
21
73
18
0
VERTEX
8
OBJECT__12
10
0
20
0
30
0
70
128
71
18
72
28
73
29
0
VERTEX
8
OBJECT__12
10
0
20
0
30
0
70
128
71
18
72
30
73
28
0
VERTEX
8
OBJECT__12
10
0
20
0
30
0
70
128
71
18
72
31
73
32
0
VERTEX
8
OBJECT__12
10
0
20
0
30
0
70
128
71
18
72
33
73
31
0
VERTEX
8
OBJECT__12
10
0
20
0
30
0
70
128
71
32
72
30
73
18
0
VERTEX
8
OBJECT__12
10
0
20
0
30
0
70
128
71
18
72
34
73
33
0
VERTEX
8
OBJECT__12
10
0
20
0
30
0
70
128
71
29
72
35
73
18
0
VERTEX
8
OBJECT__12
10
0
20
0
30
0
70
128
71
35
72
26
73
18
0
VERTEX
8
OBJECT__12
10
0
20
0
30
0
70
128
71
18
72
36
73
37
0
VERTEX
8
OBJECT__12
10
0
20
0
30
0
70
128
71
18
72
7
73
36
0
VERTEX
8
OBJECT__12
10
0
20
0
30
0
70
128
71
37
72
34
73
18
0
VERTEX
8
OBJECT__12
10
0
20
0
30
0
70
128
71
18
72
8
73
7
0
VERTEX
8
OBJECT__12
10
0
20
0
30
0
70
128
71
20
72
8
73
18
0
VERTEX
8
OBJECT__12
10
0
20
0
30
0
70
128
71
6
72
7
73
1
0
SEQEND
8
OBJECT__12
0
POLYLINE
8
OBJECT__13
66
1
70
64
71
129
72
140
62
253
0
VERTEX
8
OBJECT__13
10
68.448997
20
-0.008000
30
-20.996000
70
192
0
VERTEX
8
OBJECT__13
10
67.689003
20
-14.320000
30
-20.990000
70
192
0
VERTEX
8
OBJECT__13
10
72.523003
20
-14.320000
30
-59.702000
70
192
0
VERTEX
8
OBJECT__13
10
66.154999
20
-0.008000
30
-4.107000
70
192
0
VERTEX
8
OBJECT__13
10
65.459000
20
-14.320000
30
-4.101000
70
192
0
VERTEX
8
OBJECT__13
10
73.341003
20
-0.008000
30
-59.708000
70
192
0
VERTEX
8
OBJECT__13
10
72.525002
20
14.306000
30
-59.702000
70
192
0
VERTEX
8
OBJECT__13
10
67.691002
20
14.306000
30
-20.990000
70
192
0
VERTEX
8
OBJECT__13
10
75.332001
20
-2.712000
30
-77.186996
70
192
0
VERTEX
8
OBJECT__13
10
75.509003
20
-7.799000
30
-80.850998
70
192
0
VERTEX
8
OBJECT__13
10
75.385002
20
-5.493000
30
-78.556999
70
192
0
VERTEX
8
OBJECT__13
10
75.922997
20
-14.320000
30
-89.959999
70
192
0
VERTEX
8
OBJECT__13
10
75.982002
20
-9.641000
30
-86.663002
70
192
0
VERTEX
8
OBJECT__13
10
75.723999
20
-9.252000
30
-83.820000
70
192
0
VERTEX
8
OBJECT__13
10
75.990997
20
-9.654000
30
-86.761002
70
192
0
VERTEX
8
OBJECT__13
10
76.026001
20
-9.642000
30
-87.111000
70
192
0
VERTEX
8
OBJECT__13
10
76.334000
20
-9.051000
30
-89.962997
70
192
0
VERTEX
8
OBJECT__13
10
75.924004
20
14.306000
30
-89.959999
70
192
0
VERTEX
8
OBJECT__13
10
76.155998
20
9.500000
30
-88.360001
70
192
0
VERTEX
8
OBJECT__13
10
76.196999
20
9.422000
30
-88.741997
70
192
0
VERTEX
8
OBJECT__13
10
75.861000
20
9.584000
30
-85.397003
70
192
0
VERTEX
8
OBJECT__13
10
75.987000
20
9.548000
30
-86.662003
70
192
0
VERTEX
8
OBJECT__13
10
75.830002
20
9.535000
30
-85.049004
70
192
0
VERTEX
8
OBJECT__13
10
75.580002
20
8.473000
30
-81.924004
70
192
0
VERTEX
8
OBJECT__13
10
75.348999
20
3.963000
30
-77.666000
70
192
0
VERTEX
8
OBJECT__13
10
75.420998
20
6.428000
30
-79.307999
70
192
0
VERTEX
8
OBJECT__13
10
75.432999
20
6.680000
30
-79.544998
70
192
0
VERTEX
8
OBJECT__13
10
75.343002
20
3.630000
30
-77.517998
70
192
0
VERTEX
8
OBJECT__13
10
75.320999
20
0.821000
30
-76.815002
70
192
0
VERTEX
8
OBJECT__13
10
75.320999
20
0.425000
30
-76.788002
70
192
0
VERTEX
8
OBJECT__13
10
75.321999
20
-0.008000
30
-76.843002
70
192
0
VERTEX
8
OBJECT__13
10
69.764000
20
-23.309999
30
-47.914001
70
192
0
VERTEX
8
OBJECT__13
10
70.237000
20
-23.163000
30
-51.542000
70
192
0
VERTEX
8
OBJECT__13
10
67.327003
20
-24.341000
30
-28.672001
70
192
0
VERTEX
8
OBJECT__13
10
66.376999
20
-24.642000
30
-20.981001
70
192
0
VERTEX
8
OBJECT__13
10
74.335999
20
-21.882000
30
-83.019997
70
192
0
VERTEX
8
OBJECT__13
10
75.098000
20
-21.510000
30
-89.278999
70
192
0
VERTEX
8
OBJECT__13
10
73.766998
20
-22.059999
30
-78.650002
70
192
0
VERTEX
8
OBJECT__13
10
71.296997
20
-22.830999
30
-59.687000
70
192
0
VERTEX
8
OBJECT__13
10
76.570999
20
-16.916000
30
-101.697998
70
192
0
VERTEX
8
OBJECT__13
10
76.777000
20
-15.513000
30
-103.410004
70
192
0
VERTEX
8
OBJECT__13
10
76.094002
20
-19.558001
30
-97.704002
70
192
0
VERTEX
8
OBJECT__13
10
76.371002
20
-18.274000
30
-100.041000
70
192
0
VERTEX
8
OBJECT__13
10
75.641998
20
-20.820000
30
-93.875000
70
192
0
VERTEX
8
OBJECT__13
10
75.178001
20
-21.409000
30
-89.954002
70
192
0
VERTEX
8
OBJECT__13
10
75.640999
20
-20.822001
30
-93.871002
70
192
0
VERTEX
8
OBJECT__13
10
76.375999
20
-8.918000
30
-90.327003
70
192
0
VERTEX
8
OBJECT__13
10
76.338997
20
-9.041000
30
-90.013000
70
192
0
VERTEX
8
OBJECT__13
10
76.914001
20
-14.317000
30
-104.501999
70
192
0
VERTEX
8
OBJECT__13
10
76.719002
20
-7.170000
30
-93.120003
70
192
0
VERTEX
8
OBJECT__13
10
76.974998
20
-4.878000
30
-95.031998
70
192
0
VERTEX
8
OBJECT__13
10
76.974998
20
-13.787000
30
-104.986000
70
192
0
VERTEX
8
OBJECT__13
10
77.170998
20
-11.610000
30
-106.496002
70
192
0
VERTEX
8
OBJECT__13
10
77.293999
20
-10.247000
30
-107.442001
70
192
0
VERTEX
8
OBJECT__13
10
77.000999
20
-4.563000
30
-95.213997
70
192
0
VERTEX
8
OBJECT__13
10
77.477997
20
-7.277000
30
-108.806000
70
192
0
VERTEX
8
OBJECT__13
10
77.147003
20
-1.842000
30
-96.232002
70
192
0
VERTEX
8
OBJECT__13
10
77.527000
20
-5.885000
30
-109.144997
70
192
0
VERTEX
8
OBJECT__13
10
77.624001
20
-3.101000
30
-109.821999
70
192
0
VERTEX
8
OBJECT__13
10
77.160004
20
-1.391000
30
-96.314003
70
192
0
VERTEX
8
OBJECT__13
10
77.654999
20
-0.028000
30
-110.029999
70
192
0
VERTEX
8
OBJECT__13
10
77.170998
20
-0.008000
30
-96.392998
70
192
0
VERTEX
8
OBJECT__13
10
77.654999
20
-0.008000
30
-110.028000
70
192
0
VERTEX
8
OBJECT__13
10
77.651001
20
0.299000
30
-110.000000
70
192
0
VERTEX
8
OBJECT__13
10
77.596001
20
4.266000
30
-109.632004
70
192
0
VERTEX
8
OBJECT__13
10
77.091003
20
3.183000
30
-95.848999
70
192
0
VERTEX
8
OBJECT__13
10
77.175003
20
0.377000
30
-96.416000
70
192
0
VERTEX
8
OBJECT__13
10
77.512001
20
6.476000
30
-109.044998
70
192
0
VERTEX
8
OBJECT__13
10
77.492996
20
6.982000
30
-108.911003
70
192
0
VERTEX
8
OBJECT__13
10
77.247002
20
10.851000
30
-107.091003
70
192
0
VERTEX
8
OBJECT__13
10
77.072998
20
3.511000
30
-95.722000
70
192
0
VERTEX
8
OBJECT__13
10
77.030998
20
13.241000
30
-105.431000
70
192
0
VERTEX
8
OBJECT__13
10
76.907997
20
14.294000
30
-104.442001
70
192
0
VERTEX
8
OBJECT__13
10
76.841003
20
6.233000
30
-94.047997
70
192
0
VERTEX
8
OBJECT__13
10
77.127998
20
12.169000
30
-106.175003
70
192
0
VERTEX
8
OBJECT__13
10
76.337997
20
8.945000
30
-89.960999
70
192
0
VERTEX
8
OBJECT__13
10
76.515999
20
8.340000
30
-91.504997
70
192
0
VERTEX
8
OBJECT__13
10
76.398003
20
18.128000
30
-100.265999
70
192
0
VERTEX
8
OBJECT__13
10
75.969002
20
20.000000
30
-96.647003
70
192
0
VERTEX
8
OBJECT__13
10
76.504997
20
17.438000
30
-101.153000
70
192
0
VERTEX
8
OBJECT__13
10
75.543999
20
20.997999
30
-93.045998
70
192
0
VERTEX
8
OBJECT__13
10
76.654999
20
16.459999
30
-102.410004
70
192
0
VERTEX
8
OBJECT__13
10
75.519997
20
21.020000
30
-92.847000
70
192
0
VERTEX
8
OBJECT__13
10
73.499001
20
22.077000
30
-76.559998
70
192
0
VERTEX
8
OBJECT__13
10
75.175003
20
21.341000
30
-89.954002
70
192
0
VERTEX
8
OBJECT__13
10
74.769997
20
21.718000
30
-86.552002
70
192
0
VERTEX
8
OBJECT__13
10
72.291000
20
22.417000
30
-67.061996
70
192
0
VERTEX
8
OBJECT__13
10
69.064003
20
23.604000
30
-42.500999
70
192
0
VERTEX
8
OBJECT__13
10
66.759003
20
24.572001
30
-24.054001
70
192
0
VERTEX
8
OBJECT__13
10
66.509003
20
24.643000
30
-22.033001
70
192
0
VERTEX
8
OBJECT__13
10
69.864998
20
23.309999
30
-48.595001
70
192
0
VERTEX
8
OBJECT__13
10
71.321999
20
22.774000
30
-59.688000
70
192
0
VERTEX
8
OBJECT__13
10
65.460999
20
14.306000
30
-4.101000
70
192
0
VERTEX
8
OBJECT__13
10
65.362999
20
24.966999
30
-12.770000
70
192
0
VERTEX
8
OBJECT__13
10
64.698997
20
24.740999
30
-7.548000
70
192
0
VERTEX
8
OBJECT__13
10
66.377998
20
24.680000
30
-20.980000
70
192
0
VERTEX
8
OBJECT__13
10
64.483002
20
24.452000
30
-5.865000
70
192
0
VERTEX
8
OBJECT__13
10
62.654999
20
17.101999
30
7.763000
70
192
0
VERTEX
8
OBJECT__13
10
62.362000
20
14.894000
30
9.636000
70
192
0
VERTEX
8
OBJECT__13
10
63.794998
20
22.903000
30
-0.501000
70
192
0
VERTEX
8
OBJECT__13
10
63.685001
20
22.600000
30
0.357000
70
192
0
VERTEX
8
OBJECT__13
10
63.215000
20
20.527000
30
3.903000
70
192
0
VERTEX
8
OBJECT__13
10
62.709000
20
17.506001
30
7.420000
70
192
0
VERTEX
8
OBJECT__13
10
64.254997
20
24.146999
30
-4.091000
70
192
0
VERTEX
8
OBJECT__13
10
64.241997
20
24.129000
30
-3.986000
70
192
0
VERTEX
8
OBJECT__13
10
61.721001
20
7.685000
30
13.390000
70
192
0
VERTEX
8
OBJECT__13
10
61.527000
20
3.113000
30
14.436000
70
192
0
VERTEX
8
OBJECT__13
10
61.814999
20
8.986000
30
12.861000
70
192
0
VERTEX
8
OBJECT__13
10
62.303001
20
14.306000
30
9.993000
70
192
0
VERTEX
8
OBJECT__13
10
61.943001
20
10.764000
30
12.139000
70
192
0
VERTEX
8
OBJECT__13
10
61.499001
20
-0.001000
30
14.588000
70
192
0
VERTEX
8
OBJECT__13
10
62.195000
20
-13.404000
30
10.660000
70
192
0
VERTEX
8
OBJECT__13
10
62.303001
20
-14.320000
30
9.991000
70
192
0
VERTEX
8
OBJECT__13
10
61.810001
20
-8.998000
30
12.896000
70
192
0
VERTEX
8
OBJECT__13
10
61.820999
20
-9.196000
30
12.834000
70
192
0
VERTEX
8
OBJECT__13
10
61.499001
20
-0.008000
30
14.589000
70
192
0
VERTEX
8
OBJECT__13
10
61.492001
20
-0.764000
30
14.626000
70
192
0
VERTEX
8
OBJECT__13
10
61.602001
20
-5.367000
30
14.035000
70
192
0
VERTEX
8
OBJECT__13
10
63.796001
20
-22.884001
30
-0.517000
70
192
0
VERTEX
8
OBJECT__13
10
63.950001
20
-23.445999
30
-1.704000
70
192
0
VERTEX
8
OBJECT__13
10
64.139999
20
-23.917999
30
-3.192000
70
192
0
VERTEX
8
OBJECT__13
10
63.018002
20
-19.445000
30
5.315000
70
192
0
VERTEX
8
OBJECT__13
10
63.416000
20
-21.495001
30
2.417000
70
192
0
VERTEX
8
OBJECT__13
10
62.658001
20
-17.051001
30
7.720000
70
192
0
VERTEX
8
OBJECT__13
10
62.507999
20
-16.052000
30
8.723000
70
192
0
VERTEX
8
OBJECT__13
10
64.730003
20
-24.761999
30
-7.785000
70
192
0
VERTEX
8
OBJECT__13
10
65.362999
20
-24.962999
30
-12.770000
70
192
0
VERTEX
8
OBJECT__13
10
64.484001
20
-24.410000
30
-5.872000
70
192
0
VERTEX
8
OBJECT__13
10
64.255997
20
-24.083000
30
-4.093000
70
192
0
VERTEX
8
OBJECT__13
10
0
20
0
30
0
70
128
71
1
72
2
73
3
0
VERTEX
8
OBJECT__13
10
0
20
0
30
0
70
128
71
4
72
5
73
2
0
VERTEX
8
OBJECT__13
10
0
20
0
30
0
70
128
71
1
72
6
73
7
0
VERTEX
8
OBJECT__13
10
0
20
0
30
0
70
128
71
4
72
1
73
8
0
VERTEX
8
OBJECT__13
10
0
20
0
30
0
70
128
71
6
72
3
73
9
0
VERTEX
8
OBJECT__13
10
0
20
0
30
0
70
128
71
3
72
10
73
11
0
VERTEX
8
OBJECT__13
10
0
20
0
30
0
70
128
71
11
72
9
73
3
0
VERTEX
8
OBJECT__13
10
0
20
0
30
0
70
128
71
12
72
13
73
14
0
VERTEX
8
OBJECT__13
10
0
20
0
30
0
70
128
71
12
72
15
73
13
0
VERTEX
8
OBJECT__13
10
0
20
0
30
0
70
128
71
12
72
16
73
15
0
VERTEX
8
OBJECT__13
10
0
20
0
30
0
70
128
71
12
72
17
73
16
0
VERTEX
8
OBJECT__13
10
0
20
0
30
0
70
128
71
14
72
3
73
12
0
VERTEX
8
OBJECT__13
10
0
20
0
30
0
70
128
71
14
72
10
73
3
0
VERTEX
8
OBJECT__13
10
0
20
0
30
0
70
128
71
18
72
19
73
20
0
VERTEX
8
OBJECT__13
10
0
20
0
30
0
70
128
71
18
72
21
73
22
0
VERTEX
8
OBJECT__13
10
0
20
0
30
0
70
128
71
18
72
23
73
21
0
VERTEX
8
OBJECT__13
10
0
20
0
30
0
70
128
71
22
72
19
73
18
0
VERTEX
8
OBJECT__13
10
0
20
0
30
0
70
128
71
7
72
24
73
23
0
VERTEX
8
OBJECT__13
10
0
20
0
30
0
70
128
71
23
72
18
73
7
0
VERTEX
8
OBJECT__13
10
0
20
0
30
0
70
128
71
7
72
25
73
26
0
VERTEX
8
OBJECT__13
10
0
20
0
30
0
70
128
71
26
72
27
73
7
0
VERTEX
8
OBJECT__13
10
0
20
0
30
0
70
128
71
7
72
28
73
25
0
VERTEX
8
OBJECT__13
10
0
20
0
30
0
70
128
71
7
72
6
73
29
0
VERTEX
8
OBJECT__13
10
0
20
0
30
0
70
128
71
29
72
28
73
7
0
VERTEX
8
OBJECT__13
10
0
20
0
30
0
70
128
71
6
72
30
73
29
0
VERTEX
8
OBJECT__13
10
0
20
0
30
0
70
128
71
6
72
31
73
30
0
VERTEX
8
OBJECT__13
10
0
20
0
30
0
70
128
71
27
72
24
73
7
0
VERTEX
8
OBJECT__13
10
0
20
0
30
0
70
128
71
3
72
32
73
33
0
VERTEX
8
OBJECT__13
10
0
20
0
30
0
70
128
71
2
72
34
73
32
0
VERTEX
8
OBJECT__13
10
0
20
0
30
0
70
128
71
2
72
35
73
34
0
VERTEX
8
OBJECT__13
10
0
20
0
30
0
70
128
71
32
72
3
73
2
0
VERTEX
8
OBJECT__13
10
0
20
0
30
0
70
128
71
12
72
36
73
37
0
VERTEX
8
OBJECT__13
10
0
20
0
30
0
70
128
71
12
72
38
73
36
0
VERTEX
8
OBJECT__13
10
0
20
0
30
0
70
128
71
3
72
39
73
38
0
VERTEX
8
OBJECT__13
10
0
20
0
30
0
70
128
71
38
72
12
73
3
0
VERTEX
8
OBJECT__13
10
0
20
0
30
0
70
128
71
12
72
40
73
41
0
VERTEX
8
OBJECT__13
10
0
20
0
30
0
70
128
71
12
72
42
73
43
0
VERTEX
8
OBJECT__13
10
0
20
0
30
0
70
128
71
12
72
44
73
42
0
VERTEX
8
OBJECT__13
10
0
20
0
30
0
70
128
71
12
72
45
73
46
0
VERTEX
8
OBJECT__13
10
0
20
0
30
0
70
128
71
46
72
44
73
12
0
VERTEX
8
OBJECT__13
10
0
20
0
30
0
70
128
71
43
72
40
73
12
0
VERTEX
8
OBJECT__13
10
0
20
0
30
0
70
128
71
12
72
47
73
48
0
VERTEX
8
OBJECT__13
10
0
20
0
30
0
70
128
71
49
72
50
73
47
0
VERTEX
8
OBJECT__13
10
0
20
0
30
0
70
128
71
47
72
12
73
49
0
VERTEX
8
OBJECT__13
10
0
20
0
30
0
70
128
71
51
72
50
73
49
0
VERTEX
8
OBJECT__13
10
0
20
0
30
0
70
128
71
49
72
52
73
51
0
VERTEX
8
OBJECT__13
10
0
20
0
30
0
70
128
71
53
72
54
73
55
0
VERTEX
8
OBJECT__13
10
0
20
0
30
0
70
128
71
55
72
51
73
53
0
VERTEX
8
OBJECT__13
10
0
20
0
30
0
70
128
71
56
72
57
73
55
0
VERTEX
8
OBJECT__13
10
0
20
0
30
0
70
128
71
55
72
54
73
56
0
VERTEX
8
OBJECT__13
10
0
20
0
30
0
70
128
71
56
72
58
73
57
0
VERTEX
8
OBJECT__13
10
0
20
0
30
0
70
128
71
59
72
60
73
57
0
VERTEX
8
OBJECT__13
10
0
20
0
30
0
70
128
71
61
72
62
73
60
0
VERTEX
8
OBJECT__13
10
0
20
0
30
0
70
128
71
60
72
59
73
61
0
VERTEX
8
OBJECT__13
10
0
20
0
30
0
70
128
71
61
72
63
73
62
0
VERTEX
8
OBJECT__13
10
0
20
0
30
0
70
128
71
57
72
58
73
59
0
VERTEX
8
OBJECT__13
10
0
20
0
30
0
70
128
71
52
72
53
73
51
0
VERTEX
8
OBJECT__13
10
0
20
0
30
0
70
128
71
62
72
63
73
64
0
VERTEX
8
OBJECT__13
10
0
20
0
30
0
70
128
71
65
72
66
73
67
0
VERTEX
8
OBJECT__13
10
0
20
0
30
0
70
128
71
67
72
64
73
65
0
VERTEX
8
OBJECT__13
10
0
20
0
30
0
70
128
71
65
72
68
73
66
0
VERTEX
8
OBJECT__13
10
0
20
0
30
0
70
128
71
69
72
70
73
71
0
VERTEX
8
OBJECT__13
10
0
20
0
30
0
70
128
71
71
72
66
73
69
0
VERTEX
8
OBJECT__13
10
0
20
0
30
0
70
128
71
72
72
73
73
74
0
VERTEX
8
OBJECT__13
10
0
20
0
30
0
70
128
71
71
72
75
73
72
0
VERTEX
8
OBJECT__13
10
0
20
0
30
0
70
128
71
71
72
70
73
75
0
VERTEX
8
OBJECT__13
10
0
20
0
30
0
70
128
71
74
72
71
73
72
0
VERTEX
8
OBJECT__13
10
0
20
0
30
0
70
128
71
68
72
69
73
66
0
VERTEX
8
OBJECT__13
10
0
20
0
30
0
70
128
71
18
72
76
73
77
0
VERTEX
8
OBJECT__13
10
0
20
0
30
0
70
128
71
77
72
73
73
18
0
VERTEX
8
OBJECT__13
10
0
20
0
30
0
70
128
71
77
72
74
73
73
0
VERTEX
8
OBJECT__13
10
0
20
0
30
0
70
128
71
18
72
78
73
79
0
VERTEX
8
OBJECT__13
10
0
20
0
30
0
70
128
71
18
72
80
73
78
0
VERTEX
8
OBJECT__13
10
0
20
0
30
0
70
128
71
79
72
81
73
18
0
VERTEX
8
OBJECT__13
10
0
20
0
30
0
70
128
71
18
72
73
73
82
0
VERTEX
8
OBJECT__13
10
0
20
0
30
0
70
128
71
82
72
80
73
18
0
VERTEX
8
OBJECT__13
10
0
20
0
30
0
70
128
71
81
72
83
73
18
0
VERTEX
8
OBJECT__13
10
0
20
0
30
0
70
128
71
7
72
18
73
84
0
VERTEX
8
OBJECT__13
10
0
20
0
30
0
70
128
71
18
72
85
73
86
0
VERTEX
8
OBJECT__13
10
0
20
0
30
0
70
128
71
86
72
84
73
18
0
VERTEX
8
OBJECT__13
10
0
20
0
30
0
70
128
71
84
72
87
73
7
0
VERTEX
8
OBJECT__13
10
0
20
0
30
0
70
128
71
8
72
88
73
89
0
VERTEX
8
OBJECT__13
10
0
20
0
30
0
70
128
71
89
72
90
73
8
0
VERTEX
8
OBJECT__13
10
0
20
0
30
0
70
128
71
7
72
91
73
88
0
VERTEX
8
OBJECT__13
10
0
20
0
30
0
70
128
71
7
72
92
73
91
0
VERTEX
8
OBJECT__13
10
0
20
0
30
0
70
128
71
88
72
8
73
7
0
VERTEX
8
OBJECT__13
10
0
20
0
30
0
70
128
71
93
72
8
73
94
0
VERTEX
8
OBJECT__13
10
0
20
0
30
0
70
128
71
94
72
95
73
93
0
VERTEX
8
OBJECT__13
10
0
20
0
30
0
70
128
71
8
72
96
73
94
0
VERTEX
8
OBJECT__13
10
0
20
0
30
0
70
128
71
95
72
97
73
93
0
VERTEX
8
OBJECT__13
10
0
20
0
30
0
70
128
71
93
72
98
73
99
0
VERTEX
8
OBJECT__13
10
0
20
0
30
0
70
128
71
93
72
100
73
101
0
VERTEX
8
OBJECT__13
10
0
20
0
30
0
70
128
71
101
72
102
73
93
0
VERTEX
8
OBJECT__13
10
0
20
0
30
0
70
128
71
102
72
103
73
93
0
VERTEX
8
OBJECT__13
10
0
20
0
30
0
70
128
71
93
72
104
73
105
0
VERTEX
8
OBJECT__13
10
0
20
0
30
0
70
128
71
105
72
100
73
93
0
VERTEX
8
OBJECT__13
10
0
20
0
30
0
70
128
71
103
72
98
73
93
0
VERTEX
8
OBJECT__13
10
0
20
0
30
0
70
128
71
4
72
106
73
107
0
VERTEX
8
OBJECT__13
10
0
20
0
30
0
70
128
71
4
72
108
73
106
0
VERTEX
8
OBJECT__13
10
0
20
0
30
0
70
128
71
4
72
93
73
109
0
VERTEX
8
OBJECT__13
10
0
20
0
30
0
70
128
71
109
72
110
73
4
0
VERTEX
8
OBJECT__13
10
0
20
0
30
0
70
128
71
110
72
108
73
4
0
VERTEX
8
OBJECT__13
10
0
20
0
30
0
70
128
71
107
72
111
73
4
0
VERTEX
8
OBJECT__13
10
0
20
0
30
0
70
128
71
4
72
112
73
113
0
VERTEX
8
OBJECT__13
10
0
20
0
30
0
70
128
71
4
72
114
73
115
0
VERTEX
8
OBJECT__13
10
0
20
0
30
0
70
128
71
115
72
112
73
4
0
VERTEX
8
OBJECT__13
10
0
20
0
30
0
70
128
71
4
72
116
73
117
0
VERTEX
8
OBJECT__13
10
0
20
0
30
0
70
128
71
117
72
118
73
4
0
VERTEX
8
OBJECT__13
10
0
20
0
30
0
70
128
71
118
72
114
73
4
0
VERTEX
8
OBJECT__13
10
0
20
0
30
0
70
128
71
5
72
119
73
120
0
VERTEX
8
OBJECT__13
10
0
20
0
30
0
70
128
71
120
72
121
73
5
0
VERTEX
8
OBJECT__13
10
0
20
0
30
0
70
128
71
5
72
122
73
123
0
VERTEX
8
OBJECT__13
10
0
20
0
30
0
70
128
71
5
72
124
73
122
0
VERTEX
8
OBJECT__13
10
0
20
0
30
0
70
128
71
5
72
113
73
125
0
VERTEX
8
OBJECT__13
10
0
20
0
30
0
70
128
71
125
72
124
73
5
0
VERTEX
8
OBJECT__13
10
0
20
0
30
0
70
128
71
123
72
119
73
5
0
VERTEX
8
OBJECT__13
10
0
20
0
30
0
70
128
71
5
72
126
73
127
0
VERTEX
8
OBJECT__13
10
0
20
0
30
0
70
128
71
5
72
128
73
126
0
VERTEX
8
OBJECT__13
10
0
20
0
30
0
70
128
71
127
72
2
73
5
0
VERTEX
8
OBJECT__13
10
0
20
0
30
0
70
128
71
5
72
129
73
128
0
VERTEX
8
OBJECT__13
10
0
20
0
30
0
70
128
71
127
72
35
73
2
0
VERTEX
8
OBJECT__13
10
0
20
0
30
0
70
128
71
121
72
129
73
5
0
VERTEX
8
OBJECT__13
10
0
20
0
30
0
70
128
71
113
72
5
73
4
0
VERTEX
8
OBJECT__13
10
0
20
0
30
0
70
128
71
111
72
116
73
4
0
VERTEX
8
OBJECT__13
10
0
20
0
30
0
70
128
71
99
72
109
73
93
0
VERTEX
8
OBJECT__13
10
0
20
0
30
0
70
128
71
97
72
104
73
93
0
VERTEX
8
OBJECT__13
10
0
20
0
30
0
70
128
71
90
72
96
73
8
0
VERTEX
8
OBJECT__13
10
0
20
0
30
0
70
128
71
87
72
92
73
7
0
VERTEX
8
OBJECT__13
10
0
20
0
30
0
70
128
71
83
72
85
73
18
0
VERTEX
8
OBJECT__13
10
0
20
0
30
0
70
128
71
64
72
67
73
62
0
VERTEX
8
OBJECT__13
10
0
20
0
30
0
70
128
71
48
72
17
73
12
0
VERTEX
8
OBJECT__13
10
0
20
0
30
0
70
128
71
41
72
49
73
12
0
VERTEX
8
OBJECT__13
10
0
20
0
30
0
70
128
71
37
72
45
73
12
0
VERTEX
8
OBJECT__13
10
0
20
0
30
0
70
128
71
33
72
39
73
3
0
VERTEX
8
OBJECT__13
10
0
20
0
30
0
70
128
71
20
72
76
73
18
0
VERTEX
8
OBJECT__13
10
0
20
0
30
0
70
128
71
9
72
31
73
6
0
VERTEX
8
OBJECT__13
10
0
20
0
30
0
70
128
71
8
72
93
73
4
0
VERTEX
8
OBJECT__13
10
0
20
0
30
0
70
128
71
7
72
8
73
1
0
VERTEX
8
OBJECT__13
10
0
20
0
30
0
70
128
71
2
72
1
73
4
0
VERTEX
8
OBJECT__13
10
0
20
0
30
0
70
128
71
3
72
6
73
1
0
SEQEND
8
OBJECT__13
0
POLYLINE
8
OBJECT__15
66
1
70
64
71
66
72
64
62
253
0
VERTEX
8
OBJECT__15
10
64.730003
20
-24.761999
30
-7.785000
70
192
0
VERTEX
8
OBJECT__15
10
64.484001
20
-24.410000
30
-5.872000
70
192
0
VERTEX
8
OBJECT__15
10
40.376999
20
-26.177000
30
-5.633000
70
192
0
VERTEX
8
OBJECT__15
10
39.160000
20
-26.665001
30
-7.581000
70
192
0
VERTEX
8
OBJECT__15
10
35.917999
20
-27.143000
30
-12.770000
70
192
0
VERTEX
8
OBJECT__15
10
65.362999
20
-24.962999
30
-12.770000
70
192
0
VERTEX
8
OBJECT__15
10
63.950001
20
-23.445999
30
-1.704000
70
192
0
VERTEX
8
OBJECT__15
10
63.796001
20
-22.884001
30
-0.517000
70
192
0
VERTEX
8
OBJECT__15
10
43.791000
20
-24.167000
30
-0.169000
70
192
0
VERTEX
8
OBJECT__15
10
41.874001
20
-25.576000
30
-3.237000
70
192
0
VERTEX
8
OBJECT__15
10
64.139999
20
-23.917999
30
-3.192000
70
192
0
VERTEX
8
OBJECT__15
10
64.255997
20
-24.083000
30
-4.093000
70
192
0
VERTEX
8
OBJECT__15
10
46.591000
20
-21.330000
30
4.311000
70
192
0
VERTEX
8
OBJECT__15
10
63.416000
20
-21.495001
30
2.417000
70
192
0
VERTEX
8
OBJECT__15
10
63.018002
20
-19.445000
30
5.315000
70
192
0
VERTEX
8
OBJECT__15
10
62.658001
20
-17.051001
30
7.720000
70
192
0
VERTEX
8
OBJECT__15
10
48.916000
20
-17.650000
30
8.032000
70
192
0
VERTEX
8
OBJECT__15
10
48.768002
20
-17.951000
30
7.795000
70
192
0
VERTEX
8
OBJECT__15
10
44.520000
20
-23.631001
30
0.997000
70
192
0
VERTEX
8
OBJECT__15
10
49.881001
20
-15.690000
30
9.577000
70
192
0
VERTEX
8
OBJECT__15
10
62.507999
20
-16.052000
30
8.723000
70
192
0
VERTEX
8
OBJECT__15
10
62.303001
20
-14.320000
30
9.991000
70
192
0
VERTEX
8
OBJECT__15
10
51.424000
20
-11.531000
30
12.046000
70
192
0
VERTEX
8
OBJECT__15
10
62.195000
20
-13.404000
30
10.660000
70
192
0
VERTEX
8
OBJECT__15
10
61.820999
20
-9.196000
30
12.834000
70
192
0
VERTEX
8
OBJECT__15
10
52.056999
20
-9.173000
30
13.059000
70
192
0
VERTEX
8
OBJECT__15
10
61.810001
20
-8.998000
30
12.896000
70
192
0
VERTEX
8
OBJECT__15
10
52.063999
20
-9.148000
30
13.070000
70
192
0
VERTEX
8
OBJECT__15
10
61.602001
20
-5.367000
30
14.035000
70
192
0
VERTEX
8
OBJECT__15
10
52.834999
20
-4.760000
30
14.304000
70
192
0
VERTEX
8
OBJECT__15
10
61.492001
20
-0.764000
30
14.626000
70
192
0
VERTEX
8
OBJECT__15
10
53.091999
20
-1.403000
30
14.714000
70
192
0
VERTEX
8
OBJECT__15
10
53.063999
20
-0.001000
30
14.670000
70
192
0
VERTEX
8
OBJECT__15
10
61.499001
20
-0.008000
30
14.589000
70
192
0
VERTEX
8
OBJECT__15
10
61.499001
20
-0.001000
30
14.588000
70
192
0
VERTEX
8
OBJECT__15
10
61.527000
20
3.113000
30
14.436000
70
192
0
VERTEX
8
OBJECT__15
10
53.002998
20
3.019000
30
14.573000
70
192
0
VERTEX
8
OBJECT__15
10
61.721001
20
7.685000
30
13.390000
70
192
0
VERTEX
8
OBJECT__15
10
52.640999
20
6.181000
30
13.993000
70
192
0
VERTEX
8
OBJECT__15
10
52.013000
20
9.153000
30
12.988000
70
192
0
VERTEX
8
OBJECT__15
10
61.814999
20
8.986000
30
12.861000
70
192
0
VERTEX
8
OBJECT__15
10
61.943001
20
10.764000
30
12.139000
70
192
0
VERTEX
8
OBJECT__15
10
51.747002
20
10.407000
30
12.563000
70
192
0
VERTEX
8
OBJECT__15
10
62.303001
20
14.306000
30
9.993000
70
192
0
VERTEX
8
OBJECT__15
10
51.610001
20
10.902000
30
12.343000
70
192
0
VERTEX
8
OBJECT__15
10
50.168999
20
15.027000
30
10.037000
70
192
0
VERTEX
8
OBJECT__15
10
62.362000
20
14.894000
30
9.636000
70
192
0
VERTEX
8
OBJECT__15
10
62.654999
20
17.101999
30
7.763000
70
192
0
VERTEX
8
OBJECT__15
10
48.886002
20
17.613001
30
7.984000
70
192
0
VERTEX
8
OBJECT__15
10
62.709000
20
17.506001
30
7.420000
70
192
0
VERTEX
8
OBJECT__15
10
48.337002
20
18.719999
30
7.105000
70
192
0
VERTEX
8
OBJECT__15
10
63.215000
20
20.527000
30
3.903000
70
192
0
VERTEX
8
OBJECT__15
10
46.134998
20
21.908001
30
3.581000
70
192
0
VERTEX
8
OBJECT__15
10
63.685001
20
22.600000
30
0.357000
70
192
0
VERTEX
8
OBJECT__15
10
63.794998
20
22.903000
30
-0.501000
70
192
0
VERTEX
8
OBJECT__15
10
43.806000
20
24.230000
30
-0.145000
70
192
0
VERTEX
8
OBJECT__15
10
40.376999
20
26.174999
30
-5.634000
70
192
0
VERTEX
8
OBJECT__15
10
64.241997
20
24.129000
30
-3.986000
70
192
0
VERTEX
8
OBJECT__15
10
64.254997
20
24.146999
30
-4.091000
70
192
0
VERTEX
8
OBJECT__15
10
43.650002
20
24.386000
30
-0.395000
70
192
0
VERTEX
8
OBJECT__15
10
41.709000
20
25.669001
30
-3.502000
70
192
0
VERTEX
8
OBJECT__15
10
64.698997
20
24.740999
30
-7.548000
70
192
0
VERTEX
8
OBJECT__15
10
38.910000
20
26.732000
30
-7.981000
70
192
0
VERTEX
8
OBJECT__15
10
35.917999
20
27.146999
30
-12.770000
70
192
0
VERTEX
8
OBJECT__15
10
64.483002
20
24.452000
30
-5.865000
70
192
0
VERTEX
8
OBJECT__15
10
65.362999
20
24.966999
30
-12.770000
70
192
0
VERTEX
8
OBJECT__15
10
0
20
0
30
0
70
128
71
1
72
2
73
3
0
VERTEX
8
OBJECT__15
10
0
20
0
30
0
70
128
71
3
72
4
73
1
0
VERTEX
8
OBJECT__15
10
0
20
0
30
0
70
128
71
5
72
6
73
1
0
VERTEX
8
OBJECT__15
10
0
20
0
30
0
70
128
71
7
72
8
73
9
0
VERTEX
8
OBJECT__15
10
0
20
0
30
0
70
128
71
10
72
11
73
7
0
VERTEX
8
OBJECT__15
10
0
20
0
30
0
70
128
71
10
72
2
73
12
0
VERTEX
8
OBJECT__15
10
0
20
0
30
0
70
128
71
12
72
11
73
10
0
VERTEX
8
OBJECT__15
10
0
20
0
30
0
70
128
71
9
72
10
73
7
0
VERTEX
8
OBJECT__15
10
0
20
0
30
0
70
128
71
13
72
8
73
14
0
VERTEX
8
OBJECT__15
10
0
20
0
30
0
70
128
71
15
72
16
73
17
0
VERTEX
8
OBJECT__15
10
0
20
0
30
0
70
128
71
18
72
14
73
15
0
VERTEX
8
OBJECT__15
10
0
20
0
30
0
70
128
71
17
72
18
73
15
0
VERTEX
8
OBJECT__15
10
0
20
0
30
0
70
128
71
14
72
18
73
13
0
VERTEX
8
OBJECT__15
10
0
20
0
30
0
70
128
71
13
72
19
73
8
0
VERTEX
8
OBJECT__15
10
0
20
0
30
0
70
128
71
20
72
21
73
22
0
VERTEX
8
OBJECT__15
10
0
20
0
30
0
70
128
71
20
72
16
73
21
0
VERTEX
8
OBJECT__15
10
0
20
0
30
0
70
128
71
22
72
23
73
20
0
VERTEX
8
OBJECT__15
10
0
20
0
30
0
70
128
71
24
72
25
73
26
0
VERTEX
8
OBJECT__15
10
0
20
0
30
0
70
128
71
23
72
22
73
24
0
VERTEX
8
OBJECT__15
10
0
20
0
30
0
70
128
71
26
72
23
73
24
0
VERTEX
8
OBJECT__15
10
0
20
0
30
0
70
128
71
25
72
27
73
26
0
VERTEX
8
OBJECT__15
10
0
20
0
30
0
70
128
71
28
72
27
73
29
0
VERTEX
8
OBJECT__15
10
0
20
0
30
0
70
128
71
29
72
30
73
28
0
VERTEX
8
OBJECT__15
10
0
20
0
30
0
70
128
71
29
72
31
73
32
0
VERTEX
8
OBJECT__15
10
0
20
0
30
0
70
128
71
32
72
30
73
29
0
VERTEX
8
OBJECT__15
10
0
20
0
30
0
70
128
71
33
72
32
73
31
0
VERTEX
8
OBJECT__15
10
0
20
0
30
0
70
128
71
31
72
34
73
33
0
VERTEX
8
OBJECT__15
10
0
20
0
30
0
70
128
71
34
72
35
73
33
0
VERTEX
8
OBJECT__15
10
0
20
0
30
0
70
128
71
36
72
37
73
33
0
VERTEX
8
OBJECT__15
10
0
20
0
30
0
70
128
71
38
72
39
73
37
0
VERTEX
8
OBJECT__15
10
0
20
0
30
0
70
128
71
40
72
39
73
38
0
VERTEX
8
OBJECT__15
10
0
20
0
30
0
70
128
71
38
72
41
73
40
0
VERTEX
8
OBJECT__15
10
0
20
0
30
0
70
128
71
37
72
36
73
38
0
VERTEX
8
OBJECT__15
10
0
20
0
30
0
70
128
71
42
72
43
73
40
0
VERTEX
8
OBJECT__15
10
0
20
0
30
0
70
128
71
44
72
45
73
43
0
VERTEX
8
OBJECT__15
10
0
20
0
30
0
70
128
71
46
72
45
73
44
0
VERTEX
8
OBJECT__15
10
0
20
0
30
0
70
128
71
44
72
47
73
46
0
VERTEX
8
OBJECT__15
10
0
20
0
30
0
70
128
71
47
72
48
73
46
0
VERTEX
8
OBJECT__15
10
0
20
0
30
0
70
128
71
43
72
42
73
44
0
VERTEX
8
OBJECT__15
10
0
20
0
30
0
70
128
71
48
72
49
73
46
0
VERTEX
8
OBJECT__15
10
0
20
0
30
0
70
128
71
50
72
51
73
49
0
VERTEX
8
OBJECT__15
10
0
20
0
30
0
70
128
71
49
72
48
73
50
0
VERTEX
8
OBJECT__15
10
0
20
0
30
0
70
128
71
50
72
52
73
51
0
VERTEX
8
OBJECT__15
10
0
20
0
30
0
70
128
71
53
72
51
73
54
0
VERTEX
8
OBJECT__15
10
0
20
0
30
0
70
128
71
54
72
55
73
53
0
VERTEX
8
OBJECT__15
10
0
20
0
30
0
70
128
71
55
72
56
73
53
0
VERTEX
8
OBJECT__15
10
0
20
0
30
0
70
128
71
57
72
58
73
59
0
VERTEX
8
OBJECT__15
10
0
20
0
30
0
70
128
71
58
72
60
73
56
0
VERTEX
8
OBJECT__15
10
0
20
0
30
0
70
128
71
58
72
57
73
61
0
VERTEX
8
OBJECT__15
10
0
20
0
30
0
70
128
71
61
72
60
73
58
0
VERTEX
8
OBJECT__15
10
0
20
0
30
0
70
128
71
56
72
55
73
58
0
VERTEX
8
OBJECT__15
10
0
20
0
30
0
70
128
71
62
72
63
73
57
0
VERTEX
8
OBJECT__15
10
0
20
0
30
0
70
128
71
62
72
64
73
63
0
VERTEX
8
OBJECT__15
10
0
20
0
30
0
70
128
71
57
72
65
73
62
0
VERTEX
8
OBJECT__15
10
0
20
0
30
0
70
128
71
62
72
66
73
64
0
VERTEX
8
OBJECT__15
10
0
20
0
30
0
70
128
71
59
72
65
73
57
0
VERTEX
8
OBJECT__15
10
0
20
0
30
0
70
128
71
52
72
54
73
51
0
VERTEX
8
OBJECT__15
10
0
20
0
30
0
70
128
71
40
72
41
73
42
0
VERTEX
8
OBJECT__15
10
0
20
0
30
0
70
128
71
33
72
35
73
36
0
VERTEX
8
OBJECT__15
10
0
20
0
30
0
70
128
71
28
72
26
73
27
0
VERTEX
8
OBJECT__15
10
0
20
0
30
0
70
128
71
20
72
17
73
16
0
VERTEX
8
OBJECT__15
10
0
20
0
30
0
70
128
71
19
72
9
73
8
0
VERTEX
8
OBJECT__15
10
0
20
0
30
0
70
128
71
10
72
3
73
2
0
VERTEX
8
OBJECT__15
10
0
20
0
30
0
70
128
71
4
72
5
73
1
0
SEQEND
8
OBJECT__15
0
POLYLINE
8
OBJECT__16
66
1
70
64
71
37
72
35
62
253
0
VERTEX
8
OBJECT__16
10
48.886002
20
17.613001
30
7.984000
70
192
0
VERTEX
8
OBJECT__16
10
40.376999
20
26.174999
30
-5.634000
70
192
0
VERTEX
8
OBJECT__16
10
38.910000
20
26.732000
30
-7.981000
70
192
0
VERTEX
8
OBJECT__16
10
48.337002
20
18.719999
30
7.105000
70
192
0
VERTEX
8
OBJECT__16
10
46.134998
20
21.908001
30
3.581000
70
192
0
VERTEX
8
OBJECT__16
10
35.917999
20
27.146999
30
-12.770000
70
192
0
VERTEX
8
OBJECT__16
10
43.806000
20
24.230000
30
-0.145000
70
192
0
VERTEX
8
OBJECT__16
10
43.650002
20
24.386000
30
-0.395000
70
192
0
VERTEX
8
OBJECT__16
10
41.709000
20
25.669001
30
-3.502000
70
192
0
VERTEX
8
OBJECT__16
10
34.465000
20
27.198000
30
-15.095000
70
192
0
VERTEX
8
OBJECT__16
10
35.917999
20
-27.143000
30
-12.770000
70
192
0
VERTEX
8
OBJECT__16
10
39.160000
20
-26.665001
30
-7.581000
70
192
0
VERTEX
8
OBJECT__16
10
34.492001
20
-27.194000
30
-15.051000
70
192
0
VERTEX
8
OBJECT__16
10
35.223999
20
-27.174999
30
-13.879000
70
192
0
VERTEX
8
OBJECT__16
10
35.223999
20
27.177999
30
-13.879000
70
192
0
VERTEX
8
OBJECT__16
10
51.610001
20
10.902000
30
12.343000
70
192
0
VERTEX
8
OBJECT__16
10
50.168999
20
15.027000
30
10.037000
70
192
0
VERTEX
8
OBJECT__16
10
52.013000
20
9.153000
30
12.988000
70
192
0
VERTEX
8
OBJECT__16
10
51.747002
20
10.407000
30
12.563000
70
192
0
VERTEX
8
OBJECT__16
10
43.791000
20
-24.167000
30
-0.169000
70
192
0
VERTEX
8
OBJECT__16
10
44.520000
20
-23.631001
30
0.997000
70
192
0
VERTEX
8
OBJECT__16
10
35.849998
20
-27.146999
30
-12.877000
70
192
0
VERTEX
8
OBJECT__16
10
34.465000
20
-27.195000
30
-15.095000
70
192
0
VERTEX
8
OBJECT__16
10
53.063999
20
-0.001000
30
14.670000
70
192
0
VERTEX
8
OBJECT__16
10
53.002998
20
3.019000
30
14.573000
70
192
0
VERTEX
8
OBJECT__16
10
52.834999
20
-4.760000
30
14.304000
70
192
0
VERTEX
8
OBJECT__16
10
53.091999
20
-1.403000
30
14.714000
70
192
0
VERTEX
8
OBJECT__16
10
46.591000
20
-21.330000
30
4.311000
70
192
0
VERTEX
8
OBJECT__16
10
40.376999
20
-26.177000
30
-5.633000
70
192
0
VERTEX
8
OBJECT__16
10
41.874001
20
-25.576000
30
-3.237000
70
192
0
VERTEX
8
OBJECT__16
10
52.640999
20
6.181000
30
13.993000
70
192
0
VERTEX
8
OBJECT__16
10
52.063999
20
-9.148000
30
13.070000
70
192
0
VERTEX
8
OBJECT__16
10
49.881001
20
-15.690000
30
9.577000
70
192
0
VERTEX
8
OBJECT__16
10
51.424000
20
-11.531000
30
12.046000
70
192
0
VERTEX
8
OBJECT__16
10
48.768002
20
-17.951000
30
7.795000
70
192
0
VERTEX
8
OBJECT__16
10
52.056999
20
-9.173000
30
13.059000
70
192
0
VERTEX
8
OBJECT__16
10
48.916000
20
-17.650000
30
8.032000
70
192
0
VERTEX
8
OBJECT__16
10
0
20
0
30
0
70
128
71
1
72
2
73
3
0
VERTEX
8
OBJECT__16
10
0
20
0
30
0
70
128
71
2
72
4
73
5
0
VERTEX
8
OBJECT__16
10
0
20
0
30
0
70
128
71
3
72
6
73
1
0
VERTEX
8
OBJECT__16
10
0
20
0
30
0
70
128
71
7
72
8
73
9
0
VERTEX
8
OBJECT__16
10
0
20
0
30
0
70
128
71
2
72
1
73
4
0
VERTEX
8
OBJECT__16
10
0
20
0
30
0
70
128
71
10
72
11
73
12
0
VERTEX
8
OBJECT__16
10
0
20
0
30
0
70
128
71
10
72
13
73
14
0
VERTEX
8
OBJECT__16
10
0
20
0
30
0
70
128
71
6
72
15
73
1
0
VERTEX
8
OBJECT__16
10
0
20
0
30
0
70
128
71
5
72
7
73
2
0
VERTEX
8
OBJECT__16
10
0
20
0
30
0
70
128
71
10
72
16
73
17
0
VERTEX
8
OBJECT__16
10
0
20
0
30
0
70
128
71
10
72
18
73
19
0
VERTEX
8
OBJECT__16
10
0
20
0
30
0
70
128
71
10
72
20
73
21
0
VERTEX
8
OBJECT__16
10
0
20
0
30
0
70
128
71
10
72
22
73
11
0
VERTEX
8
OBJECT__16
10
0
20
0
30
0
70
128
71
10
72
23
73
13
0
VERTEX
8
OBJECT__16
10
0
20
0
30
0
70
128
71
9
72
2
73
7
0
VERTEX
8
OBJECT__16
10
0
20
0
30
0
70
128
71
19
72
16
73
10
0
VERTEX
8
OBJECT__16
10
0
20
0
30
0
70
128
71
10
72
24
73
25
0
VERTEX
8
OBJECT__16
10
0
20
0
30
0
70
128
71
10
72
26
73
27
0
VERTEX
8
OBJECT__16
10
0
20
0
30
0
70
128
71
21
72
28
73
10
0
VERTEX
8
OBJECT__16
10
0
20
0
30
0
70
128
71
10
72
29
73
30
0
VERTEX
8
OBJECT__16
10
0
20
0
30
0
70
128
71
14
72
22
73
10
0
VERTEX
8
OBJECT__16
10
0
20
0
30
0
70
128
71
17
72
1
73
10
0
VERTEX
8
OBJECT__16
10
0
20
0
30
0
70
128
71
25
72
31
73
10
0
VERTEX
8
OBJECT__16
10
0
20
0
30
0
70
128
71
10
72
32
73
26
0
VERTEX
8
OBJECT__16
10
0
20
0
30
0
70
128
71
10
72
33
73
34
0
VERTEX
8
OBJECT__16
10
0
20
0
30
0
70
128
71
28
72
35
73
10
0
VERTEX
8
OBJECT__16
10
0
20
0
30
0
70
128
71
12
72
29
73
10
0
VERTEX
8
OBJECT__16
10
0
20
0
30
0
70
128
71
31
72
18
73
10
0
VERTEX
8
OBJECT__16
10
0
20
0
30
0
70
128
71
10
72
36
73
32
0
VERTEX
8
OBJECT__16
10
0
20
0
30
0
70
128
71
10
72
37
73
33
0
VERTEX
8
OBJECT__16
10
0
20
0
30
0
70
128
71
30
72
20
73
10
0
VERTEX
8
OBJECT__16
10
0
20
0
30
0
70
128
71
27
72
24
73
10
0
VERTEX
8
OBJECT__16
10
0
20
0
30
0
70
128
71
35
72
37
73
10
0
VERTEX
8
OBJECT__16
10
0
20
0
30
0
70
128
71
34
72
36
73
10
0
VERTEX
8
OBJECT__16
10
0
20
0
30
0
70
128
71
15
72
10
73
1
0
SEQEND
8
OBJECT__16
0
POLYLINE
8
OBJECT__17
66
1
70
64
71
139
72
137
62
253
0
VERTEX
8
OBJECT__17
10
49.341000
20
25.937000
30
-19.843000
70
192
0
VERTEX
8
OBJECT__17
10
34.465000
20
27.142000
30
-16.528999
70
192
0
VERTEX
8
OBJECT__17
10
34.465000
20
27.198000
30
-15.095000
70
192
0
VERTEX
8
OBJECT__17
10
35.223999
20
27.177999
30
-13.879000
70
192
0
VERTEX
8
OBJECT__17
10
34.465000
20
26.999001
30
-19.415001
70
192
0
VERTEX
8
OBJECT__17
10
65.362999
20
24.966999
30
-12.770000
70
192
0
VERTEX
8
OBJECT__17
10
50.181999
20
25.877001
30
-19.867001
70
192
0
VERTEX
8
OBJECT__17
10
35.917999
20
27.146999
30
-12.770000
70
192
0
VERTEX
8
OBJECT__17
10
55.959999
20
25.459999
30
-20.142000
70
192
0
VERTEX
8
OBJECT__17
10
58.832001
20
25.224001
30
-20.993999
70
192
0
VERTEX
8
OBJECT__17
10
56.856998
20
25.386000
30
-20.408001
70
192
0
VERTEX
8
OBJECT__17
10
66.377998
20
24.680000
30
-20.980000
70
192
0
VERTEX
8
OBJECT__17
10
60.303001
20
25.077999
30
-22.066000
70
192
0
VERTEX
8
OBJECT__17
10
59.491001
20
25.158001
30
-21.474001
70
192
0
VERTEX
8
OBJECT__17
10
66.509003
20
24.643000
30
-22.033001
70
192
0
VERTEX
8
OBJECT__17
10
66.759003
20
24.572001
30
-24.054001
70
192
0
VERTEX
8
OBJECT__17
10
63.192001
20
24.740999
30
-25.375000
70
192
0
VERTEX
8
OBJECT__17
10
61.441002
20
24.957001
30
-23.089001
70
192
0
VERTEX
8
OBJECT__17
10
64.819000
20
24.462000
30
-29.249001
70
192
0
VERTEX
8
OBJECT__17
10
64.046997
20
24.594000
30
-27.412001
70
192
0
VERTEX
8
OBJECT__17
10
69.864998
20
23.309999
30
-48.595001
70
192
0
VERTEX
8
OBJECT__17
10
67.607002
20
23.424999
30
-48.597000
70
192
0
VERTEX
8
OBJECT__17
10
66.903999
20
23.680000
30
-43.185001
70
192
0
VERTEX
8
OBJECT__17
10
69.064003
20
23.604000
30
-42.500999
70
192
0
VERTEX
8
OBJECT__17
10
65.906998
20
24.094999
30
-35.530998
70
192
0
VERTEX
8
OBJECT__17
10
65.682999
20
24.193001
30
-33.816002
70
192
0
VERTEX
8
OBJECT__17
10
66.627998
20
23.780001
30
-41.054001
70
192
0
VERTEX
8
OBJECT__17
10
61.104000
20
24.997999
30
-22.649000
70
192
0
VERTEX
8
OBJECT__17
10
71.321999
20
22.774000
30
-59.688000
70
192
0
VERTEX
8
OBJECT__17
10
68.948997
20
22.937000
30
-58.936001
70
192
0
VERTEX
8
OBJECT__17
10
72.291000
20
22.417000
30
-67.061996
70
192
0
VERTEX
8
OBJECT__17
10
71.007004
20
22.188999
30
-74.791000
70
192
0
VERTEX
8
OBJECT__17
10
73.499001
20
22.077000
30
-76.559998
70
192
0
VERTEX
8
OBJECT__17
10
71.165001
20
22.132000
30
-76.012001
70
192
0
VERTEX
8
OBJECT__17
10
71.226997
20
22.107000
30
-76.564003
70
192
0
VERTEX
8
OBJECT__17
10
74.769997
20
21.718000
30
-86.552002
70
192
0
VERTEX
8
OBJECT__17
10
72.612000
20
21.544001
30
-88.987000
70
192
0
VERTEX
8
OBJECT__17
10
75.175003
20
21.341000
30
-89.954002
70
192
0
VERTEX
8
OBJECT__17
10
75.519997
20
21.020000
30
-92.847000
70
192
0
VERTEX
8
OBJECT__17
10
73.036003
20
20.909000
30
-92.827003
70
192
0
VERTEX
8
OBJECT__17
10
72.763000
20
21.318001
30
-90.355003
70
192
0
VERTEX
8
OBJECT__17
10
75.543999
20
20.997999
30
-93.045998
70
192
0
VERTEX
8
OBJECT__17
10
73.273003
20
20.549000
30
-94.969002
70
192
0
VERTEX
8
OBJECT__17
10
73.267998
20
20.561001
30
-94.927002
70
192
0
VERTEX
8
OBJECT__17
10
75.969002
20
20.000000
30
-96.647003
70
192
0
VERTEX
8
OBJECT__17
10
73.309998
20
20.451000
30
-95.309998
70
192
0
VERTEX
8
OBJECT__17
10
73.267998
20
20.562000
30
-94.921997
70
192
0
VERTEX
8
OBJECT__17
10
73.637001
20
19.171000
30
-98.510002
70
192
0
VERTEX
8
OBJECT__17
10
73.613998
20
19.263000
30
-98.278999
70
192
0
VERTEX
8
OBJECT__17
10
76.398003
20
18.128000
30
-100.265999
70
192
0
VERTEX
8
OBJECT__17
10
73.920998
20
17.403000
30
-101.133003
70
192
0
VERTEX
8
OBJECT__17
10
76.504997
20
17.438000
30
-101.153000
70
192
0
VERTEX
8
OBJECT__17
10
74.439003
20
13.135000
30
-105.514000
70
192
0
VERTEX
8
OBJECT__17
10
74.278000
20
14.531000
30
-104.179001
70
192
0
VERTEX
8
OBJECT__17
10
76.907997
20
14.294000
30
-104.442001
70
192
0
VERTEX
8
OBJECT__17
10
74.012001
20
16.836000
30
-101.974998
70
192
0
VERTEX
8
OBJECT__17
10
76.654999
20
16.459999
30
-102.410004
70
192
0
VERTEX
8
OBJECT__17
10
77.030998
20
13.241000
30
-105.431000
70
192
0
VERTEX
8
OBJECT__17
10
77.127998
20
12.169000
30
-106.175003
70
192
0
VERTEX
8
OBJECT__17
10
74.504997
20
12.146000
30
-106.135002
70
192
0
VERTEX
8
OBJECT__17
10
77.247002
20
10.851000
30
-107.091003
70
192
0
VERTEX
8
OBJECT__17
10
77.492996
20
6.982000
30
-108.911003
70
192
0
VERTEX
8
OBJECT__17
10
74.761002
20
7.862000
30
-108.485001
70
192
0
VERTEX
8
OBJECT__17
10
74.709000
20
9.147000
30
-108.018997
70
192
0
VERTEX
8
OBJECT__17
10
74.817001
20
6.454000
30
-108.995003
70
192
0
VERTEX
8
OBJECT__17
10
77.512001
20
6.476000
30
-109.044998
70
192
0
VERTEX
8
OBJECT__17
10
74.935997
20
1.080000
30
-110.005997
70
192
0
VERTEX
8
OBJECT__17
10
74.861000
20
5.371000
30
-109.388000
70
192
0
VERTEX
8
OBJECT__17
10
77.596001
20
4.266000
30
-109.632004
70
192
0
VERTEX
8
OBJECT__17
10
77.651001
20
0.299000
30
-110.000000
70
192
0
VERTEX
8
OBJECT__17
10
74.930000
20
0.306000
30
-109.961998
70
192
0
VERTEX
8
OBJECT__17
10
74.928001
20
0.014000
30
-109.945999
70
192
0
VERTEX
8
OBJECT__17
10
77.654999
20
-0.028000
30
-110.029999
70
192
0
VERTEX
8
OBJECT__17
10
77.624001
20
-3.101000
30
-109.821999
70
192
0
VERTEX
8
OBJECT__17
10
77.654999
20
-0.008000
30
-110.028000
70
192
0
VERTEX
8
OBJECT__17
10
74.903000
20
-3.645000
30
-109.740997
70
192
0
VERTEX
8
OBJECT__17
10
77.527000
20
-5.885000
30
-109.144997
70
192
0
VERTEX
8
OBJECT__17
10
74.833000
20
-5.879000
30
-109.133003
70
192
0
VERTEX
8
OBJECT__17
10
77.477997
20
-7.277000
30
-108.806000
70
192
0
VERTEX
8
OBJECT__17
10
74.767998
20
-7.872000
30
-108.570000
70
192
0
VERTEX
8
OBJECT__17
10
77.293999
20
-10.247000
30
-107.442001
70
192
0
VERTEX
8
OBJECT__17
10
74.570999
20
-11.434000
30
-106.723000
70
192
0
VERTEX
8
OBJECT__17
10
77.170998
20
-11.610000
30
-106.496002
70
192
0
VERTEX
8
OBJECT__17
10
74.773003
20
-7.786000
30
-108.613998
70
192
0
VERTEX
8
OBJECT__17
10
74.551003
20
-11.646000
30
-106.552002
70
192
0
VERTEX
8
OBJECT__17
10
76.974998
20
-13.787000
30
-104.986000
70
192
0
VERTEX
8
OBJECT__17
10
74.278999
20
-14.544000
30
-104.207001
70
192
0
VERTEX
8
OBJECT__17
10
76.777000
20
-15.513000
30
-103.410004
70
192
0
VERTEX
8
OBJECT__17
10
74.194000
20
-15.444000
30
-103.478996
70
192
0
VERTEX
8
OBJECT__17
10
76.914001
20
-14.317000
30
-104.501999
70
192
0
VERTEX
8
OBJECT__17
10
76.570999
20
-16.916000
30
-101.697998
70
192
0
VERTEX
8
OBJECT__17
10
73.986000
20
-16.913000
30
-101.695999
70
192
0
VERTEX
8
OBJECT__17
10
76.371002
20
-18.274000
30
-100.041000
70
192
0
VERTEX
8
OBJECT__17
10
73.792999
20
-18.267000
30
-100.052002
70
192
0
VERTEX
8
OBJECT__17
10
76.094002
20
-19.558001
30
-97.704002
70
192
0
VERTEX
8
OBJECT__17
10
73.611000
20
-19.183001
30
-98.251999
70
192
0
VERTEX
8
OBJECT__17
10
73.450996
20
-19.990999
30
-96.664001
70
192
0
VERTEX
8
OBJECT__17
10
75.641998
20
-20.820000
30
-93.875000
70
192
0
VERTEX
8
OBJECT__17
10
73.143997
20
-20.743000
30
-93.853996
70
192
0
VERTEX
8
OBJECT__17
10
75.640999
20
-20.822001
30
-93.871002
70
192
0
VERTEX
8
OBJECT__17
10
75.098000
20
-21.510000
30
-89.278999
70
192
0
VERTEX
8
OBJECT__17
10
74.335999
20
-21.882000
30
-83.019997
70
192
0
VERTEX
8
OBJECT__17
10
72.271004
20
-21.764000
30
-85.778999
70
192
0
VERTEX
8
OBJECT__17
10
72.766998
20
-21.302000
30
-90.374001
70
192
0
VERTEX
8
OBJECT__17
10
75.178001
20
-21.409000
30
-89.954002
70
192
0
VERTEX
8
OBJECT__17
10
73.008003
20
-21.077000
30
-92.603996
70
192
0
VERTEX
8
OBJECT__17
10
71.376999
20
-22.046000
30
-78.647003
70
192
0
VERTEX
8
OBJECT__17
10
73.766998
20
-22.059999
30
-78.650002
70
192
0
VERTEX
8
OBJECT__17
10
71.296997
20
-22.830999
30
-59.687000
70
192
0
VERTEX
8
OBJECT__17
10
68.908997
20
-22.823999
30
-58.950001
70
192
0
VERTEX
8
OBJECT__17
10
70.898003
20
-22.197001
30
-74.820000
70
192
0
VERTEX
8
OBJECT__17
10
68.768997
20
-22.868000
30
-57.827000
70
192
0
VERTEX
8
OBJECT__17
10
70.237000
20
-23.163000
30
-51.542000
70
192
0
VERTEX
8
OBJECT__17
10
67.968002
20
-23.212999
30
-51.546001
70
192
0
VERTEX
8
OBJECT__17
10
69.764000
20
-23.309999
30
-47.914001
70
192
0
VERTEX
8
OBJECT__17
10
67.327003
20
-24.341000
30
-28.672001
70
192
0
VERTEX
8
OBJECT__17
10
65.926003
20
-24.091000
30
-35.540001
70
192
0
VERTEX
8
OBJECT__17
10
66.903000
20
-23.671000
30
-43.202000
70
192
0
VERTEX
8
OBJECT__17
10
65.888000
20
-24.108000
30
-35.238998
70
192
0
VERTEX
8
OBJECT__17
10
65.032997
20
-24.417999
30
-29.853001
70
192
0
VERTEX
8
OBJECT__17
10
66.376999
20
-24.642000
30
-20.981001
70
192
0
VERTEX
8
OBJECT__17
10
63.445000
20
-24.700001
30
-25.853001
70
192
0
VERTEX
8
OBJECT__17
10
64.067001
20
-24.589001
30
-27.420000
70
192
0
VERTEX
8
OBJECT__17
10
61.691002
20
-24.927999
30
-23.282000
70
192
0
VERTEX
8
OBJECT__17
10
65.362999
20
-24.962999
30
-12.770000
70
192
0
VERTEX
8
OBJECT__17
10
61.469002
20
-24.951000
30
-23.097000
70
192
0
VERTEX
8
OBJECT__17
10
59.407001
20
-25.165001
30
-21.375999
70
192
0
VERTEX
8
OBJECT__17
10
35.917999
20
-27.143000
30
-12.770000
70
192
0
VERTEX
8
OBJECT__17
10
49.344002
20
-25.933001
30
-19.850000
70
192
0
VERTEX
8
OBJECT__17
10
42.358002
20
-26.434000
30
-19.618000
70
192
0
VERTEX
8
OBJECT__17
10
34.492001
20
-27.194000
30
-15.051000
70
192
0
VERTEX
8
OBJECT__17
10
34.465000
20
-27.195000
30
-15.095000
70
192
0
VERTEX
8
OBJECT__17
10
34.465000
20
-27.139000
30
-16.528999
70
192
0
VERTEX
8
OBJECT__17
10
35.849998
20
-27.146999
30
-12.877000
70
192
0
VERTEX
8
OBJECT__17
10
35.223999
20
-27.174999
30
-13.879000
70
192
0
VERTEX
8
OBJECT__17
10
34.465000
20
-26.995001
30
-19.415001
70
192
0
VERTEX
8
OBJECT__17
10
50.209000
20
-25.871000
30
-19.878000
70
192
0
VERTEX
8
OBJECT__17
10
53.938999
20
-25.601999
30
-20.041000
70
192
0
VERTEX
8
OBJECT__17
10
56.826000
20
-25.386000
30
-20.375999
70
192
0
VERTEX
8
OBJECT__17
10
0
20
0
30
0
70
128
71
1
72
2
73
3
0
VERTEX
8
OBJECT__17
10
0
20
0
30
0
70
128
71
3
72
4
73
1
0
VERTEX
8
OBJECT__17
10
0
20
0
30
0
70
128
71
1
72
5
73
2
0
VERTEX
8
OBJECT__17
10
0
20
0
30
0
70
128
71
6
72
7
73
1
0
VERTEX
8
OBJECT__17
10
0
20
0
30
0
70
128
71
1
72
8
73
6
0
VERTEX
8
OBJECT__17
10
0
20
0
30
0
70
128
71
6
72
9
73
7
0
VERTEX
8
OBJECT__17
10
0
20
0
30
0
70
128
71
6
72
10
73
11
0
VERTEX
8
OBJECT__17
10
0
20
0
30
0
70
128
71
11
72
9
73
6
0
VERTEX
8
OBJECT__17
10
0
20
0
30
0
70
128
71
6
72
12
73
13
0
VERTEX
8
OBJECT__17
10
0
20
0
30
0
70
128
71
13
72
14
73
6
0
VERTEX
8
OBJECT__17
10
0
20
0
30
0
70
128
71
12
72
15
73
13
0
VERTEX
8
OBJECT__17
10
0
20
0
30
0
70
128
71
14
72
10
73
6
0
VERTEX
8
OBJECT__17
10
0
20
0
30
0
70
128
71
15
72
16
73
17
0
VERTEX
8
OBJECT__17
10
0
20
0
30
0
70
128
71
17
72
18
73
15
0
VERTEX
8
OBJECT__17
10
0
20
0
30
0
70
128
71
16
72
19
73
20
0
VERTEX
8
OBJECT__17
10
0
20
0
30
0
70
128
71
21
72
22
73
23
0
VERTEX
8
OBJECT__17
10
0
20
0
30
0
70
128
71
24
72
25
73
26
0
VERTEX
8
OBJECT__17
10
0
20
0
30
0
70
128
71
24
72
27
73
25
0
VERTEX
8
OBJECT__17
10
0
20
0
30
0
70
128
71
24
72
23
73
27
0
VERTEX
8
OBJECT__17
10
0
20
0
30
0
70
128
71
26
72
16
73
24
0
VERTEX
8
OBJECT__17
10
0
20
0
30
0
70
128
71
23
72
24
73
21
0
VERTEX
8
OBJECT__17
10
0
20
0
30
0
70
128
71
26
72
19
73
16
0
VERTEX
8
OBJECT__17
10
0
20
0
30
0
70
128
71
20
72
17
73
16
0
VERTEX
8
OBJECT__17
10
0
20
0
30
0
70
128
71
18
72
28
73
15
0
VERTEX
8
OBJECT__17
10
0
20
0
30
0
70
128
71
21
72
29
73
30
0
VERTEX
8
OBJECT__17
10
0
20
0
30
0
70
128
71
30
72
29
73
31
0
VERTEX
8
OBJECT__17
10
0
20
0
30
0
70
128
71
31
72
32
73
30
0
VERTEX
8
OBJECT__17
10
0
20
0
30
0
70
128
71
33
72
34
73
32
0
VERTEX
8
OBJECT__17
10
0
20
0
30
0
70
128
71
31
72
33
73
32
0
VERTEX
8
OBJECT__17
10
0
20
0
30
0
70
128
71
33
72
35
73
34
0
VERTEX
8
OBJECT__17
10
0
20
0
30
0
70
128
71
35
72
33
73
36
0
VERTEX
8
OBJECT__17
10
0
20
0
30
0
70
128
71
36
72
37
73
35
0
VERTEX
8
OBJECT__17
10
0
20
0
30
0
70
128
71
38
72
39
73
40
0
VERTEX
8
OBJECT__17
10
0
20
0
30
0
70
128
71
40
72
41
73
38
0
VERTEX
8
OBJECT__17
10
0
20
0
30
0
70
128
71
41
72
37
73
38
0
VERTEX
8
OBJECT__17
10
0
20
0
30
0
70
128
71
40
72
39
73
42
0
VERTEX
8
OBJECT__17
10
0
20
0
30
0
70
128
71
42
72
43
73
44
0
VERTEX
8
OBJECT__17
10
0
20
0
30
0
70
128
71
45
72
46
73
43
0
VERTEX
8
OBJECT__17
10
0
20
0
30
0
70
128
71
43
72
42
73
45
0
VERTEX
8
OBJECT__17
10
0
20
0
30
0
70
128
71
44
72
47
73
42
0
VERTEX
8
OBJECT__17
10
0
20
0
30
0
70
128
71
45
72
48
73
49
0
VERTEX
8
OBJECT__17
10
0
20
0
30
0
70
128
71
50
72
51
73
48
0
VERTEX
8
OBJECT__17
10
0
20
0
30
0
70
128
71
48
72
45
73
50
0
VERTEX
8
OBJECT__17
10
0
20
0
30
0
70
128
71
50
72
52
73
51
0
VERTEX
8
OBJECT__17
10
0
20
0
30
0
70
128
71
49
72
46
73
45
0
VERTEX
8
OBJECT__17
10
0
20
0
30
0
70
128
71
53
72
54
73
55
0
VERTEX
8
OBJECT__17
10
0
20
0
30
0
70
128
71
54
72
56
73
57
0
VERTEX
8
OBJECT__17
10
0
20
0
30
0
70
128
71
56
72
52
73
57
0
VERTEX
8
OBJECT__17
10
0
20
0
30
0
70
128
71
57
72
55
73
54
0
VERTEX
8
OBJECT__17
10
0
20
0
30
0
70
128
71
55
72
58
73
53
0
VERTEX
8
OBJECT__17
10
0
20
0
30
0
70
128
71
58
72
59
73
60
0
VERTEX
8
OBJECT__17
10
0
20
0
30
0
70
128
71
60
72
53
73
58
0
VERTEX
8
OBJECT__17
10
0
20
0
30
0
70
128
71
60
72
59
73
61
0
VERTEX
8
OBJECT__17
10
0
20
0
30
0
70
128
71
62
72
63
73
64
0
VERTEX
8
OBJECT__17
10
0
20
0
30
0
70
128
71
65
72
63
73
62
0
VERTEX
8
OBJECT__17
10
0
20
0
30
0
70
128
71
62
72
66
73
65
0
VERTEX
8
OBJECT__17
10
0
20
0
30
0
70
128
71
64
72
61
73
62
0
VERTEX
8
OBJECT__17
10
0
20
0
30
0
70
128
71
67
72
68
73
69
0
VERTEX
8
OBJECT__17
10
0
20
0
30
0
70
128
71
68
72
66
73
69
0
VERTEX
8
OBJECT__17
10
0
20
0
30
0
70
128
71
69
72
70
73
67
0
VERTEX
8
OBJECT__17
10
0
20
0
30
0
70
128
71
70
72
71
73
67
0
VERTEX
8
OBJECT__17
10
0
20
0
30
0
70
128
71
72
72
71
73
70
0
VERTEX
8
OBJECT__17
10
0
20
0
30
0
70
128
71
72
72
73
73
74
0
VERTEX
8
OBJECT__17
10
0
20
0
30
0
70
128
71
72
72
75
73
73
0
VERTEX
8
OBJECT__17
10
0
20
0
30
0
70
128
71
74
72
76
73
72
0
VERTEX
8
OBJECT__17
10
0
20
0
30
0
70
128
71
77
72
78
73
76
0
VERTEX
8
OBJECT__17
10
0
20
0
30
0
70
128
71
76
72
74
73
77
0
VERTEX
8
OBJECT__17
10
0
20
0
30
0
70
128
71
78
72
77
73
79
0
VERTEX
8
OBJECT__17
10
0
20
0
30
0
70
128
71
80
72
79
73
81
0
VERTEX
8
OBJECT__17
10
0
20
0
30
0
70
128
71
81
72
82
73
80
0
VERTEX
8
OBJECT__17
10
0
20
0
30
0
70
128
71
81
72
83
73
82
0
VERTEX
8
OBJECT__17
10
0
20
0
30
0
70
128
71
80
72
84
73
79
0
VERTEX
8
OBJECT__17
10
0
20
0
30
0
70
128
71
83
72
85
73
82
0
VERTEX
8
OBJECT__17
10
0
20
0
30
0
70
128
71
85
72
83
73
86
0
VERTEX
8
OBJECT__17
10
0
20
0
30
0
70
128
71
86
72
87
73
85
0
VERTEX
8
OBJECT__17
10
0
20
0
30
0
70
128
71
88
72
89
73
87
0
VERTEX
8
OBJECT__17
10
0
20
0
30
0
70
128
71
87
72
90
73
88
0
VERTEX
8
OBJECT__17
10
0
20
0
30
0
70
128
71
89
72
88
73
91
0
VERTEX
8
OBJECT__17
10
0
20
0
30
0
70
128
71
91
72
92
73
89
0
VERTEX
8
OBJECT__17
10
0
20
0
30
0
70
128
71
93
72
94
73
92
0
VERTEX
8
OBJECT__17
10
0
20
0
30
0
70
128
71
93
72
95
73
96
0
VERTEX
8
OBJECT__17
10
0
20
0
30
0
70
128
71
96
72
94
73
93
0
VERTEX
8
OBJECT__17
10
0
20
0
30
0
70
128
71
95
72
97
73
96
0
VERTEX
8
OBJECT__17
10
0
20
0
30
0
70
128
71
98
72
99
73
97
0
VERTEX
8
OBJECT__17
10
0
20
0
30
0
70
128
71
97
72
95
73
98
0
VERTEX
8
OBJECT__17
10
0
20
0
30
0
70
128
71
99
72
98
73
100
0
VERTEX
8
OBJECT__17
10
0
20
0
30
0
70
128
71
101
72
102
73
103
0
VERTEX
8
OBJECT__17
10
0
20
0
30
0
70
128
71
104
72
105
73
101
0
VERTEX
8
OBJECT__17
10
0
20
0
30
0
70
128
71
105
72
104
73
106
0
VERTEX
8
OBJECT__17
10
0
20
0
30
0
70
128
71
106
72
100
73
105
0
VERTEX
8
OBJECT__17
10
0
20
0
30
0
70
128
71
103
72
104
73
101
0
VERTEX
8
OBJECT__17
10
0
20
0
30
0
70
128
71
107
72
103
73
102
0
VERTEX
8
OBJECT__17
10
0
20
0
30
0
70
128
71
102
72
108
73
107
0
VERTEX
8
OBJECT__17
10
0
20
0
30
0
70
128
71
109
72
110
73
111
0
VERTEX
8
OBJECT__17
10
0
20
0
30
0
70
128
71
111
72
108
73
109
0
VERTEX
8
OBJECT__17
10
0
20
0
30
0
70
128
71
109
72
112
73
110
0
VERTEX
8
OBJECT__17
10
0
20
0
30
0
70
128
71
113
72
114
73
112
0
VERTEX
8
OBJECT__17
10
0
20
0
30
0
70
128
71
112
72
109
73
113
0
VERTEX
8
OBJECT__17
10
0
20
0
30
0
70
128
71
115
72
116
73
117
0
VERTEX
8
OBJECT__17
10
0
20
0
30
0
70
128
71
117
72
118
73
115
0
VERTEX
8
OBJECT__17
10
0
20
0
30
0
70
128
71
116
72
119
73
117
0
VERTEX
8
OBJECT__17
10
0
20
0
30
0
70
128
71
114
72
113
73
115
0
VERTEX
8
OBJECT__17
10
0
20
0
30
0
70
128
71
116
72
120
73
119
0
VERTEX
8
OBJECT__17
10
0
20
0
30
0
70
128
71
121
72
122
73
123
0
VERTEX
8
OBJECT__17
10
0
20
0
30
0
70
128
71
123
72
116
73
121
0
VERTEX
8
OBJECT__17
10
0
20
0
30
0
70
128
71
123
72
120
73
116
0
VERTEX
8
OBJECT__17
10
0
20
0
30
0
70
128
71
121
72
124
73
122
0
VERTEX
8
OBJECT__17
10
0
20
0
30
0
70
128
71
125
72
126
73
124
0
VERTEX
8
OBJECT__17
10
0
20
0
30
0
70
128
71
125
72
127
73
126
0
VERTEX
8
OBJECT__17
10
0
20
0
30
0
70
128
71
124
72
121
73
125
0
VERTEX
8
OBJECT__17
10
0
20
0
30
0
70
128
71
125
72
128
73
129
0
VERTEX
8
OBJECT__17
10
0
20
0
30
0
70
128
71
128
72
130
73
129
0
VERTEX
8
OBJECT__17
10
0
20
0
30
0
70
128
71
130
72
131
73
132
0
VERTEX
8
OBJECT__17
10
0
20
0
30
0
70
128
71
132
72
133
73
130
0
VERTEX
8
OBJECT__17
10
0
20
0
30
0
70
128
71
130
72
134
73
135
0
VERTEX
8
OBJECT__17
10
0
20
0
30
0
70
128
71
135
72
131
73
130
0
VERTEX
8
OBJECT__17
10
0
20
0
30
0
70
128
71
130
72
128
73
134
0
VERTEX
8
OBJECT__17
10
0
20
0
30
0
70
128
71
133
72
136
73
130
0
VERTEX
8
OBJECT__17
10
0
20
0
30
0
70
128
71
129
72
137
73
125
0
VERTEX
8
OBJECT__17
10
0
20
0
30
0
70
128
71
137
72
138
73
125
0
VERTEX
8
OBJECT__17
10
0
20
0
30
0
70
128
71
138
72
139
73
125
0
VERTEX
8
OBJECT__17
10
0
20
0
30
0
70
128
71
139
72
127
73
125
0
VERTEX
8
OBJECT__17
10
0
20
0
30
0
70
128
71
118
72
114
73
115
0
VERTEX
8
OBJECT__17
10
0
20
0
30
0
70
128
71
111
72
107
73
108
0
VERTEX
8
OBJECT__17
10
0
20
0
30
0
70
128
71
100
72
106
73
99
0
VERTEX
8
OBJECT__17
10
0
20
0
30
0
70
128
71
92
72
91
73
93
0
VERTEX
8
OBJECT__17
10
0
20
0
30
0
70
128
71
86
72
90
73
87
0
VERTEX
8
OBJECT__17
10
0
20
0
30
0
70
128
71
79
72
84
73
78
0
VERTEX
8
OBJECT__17
10
0
20
0
30
0
70
128
71
70
72
75
73
72
0
VERTEX
8
OBJECT__17
10
0
20
0
30
0
70
128
71
68
72
65
73
66
0
VERTEX
8
OBJECT__17
10
0
20
0
30
0
70
128
71
61
72
64
73
60
0
VERTEX
8
OBJECT__17
10
0
20
0
30
0
70
128
71
56
72
51
73
52
0
VERTEX
8
OBJECT__17
10
0
20
0
30
0
70
128
71
42
72
47
73
40
0
VERTEX
8
OBJECT__17
10
0
20
0
30
0
70
128
71
36
72
38
73
37
0
VERTEX
8
OBJECT__17
10
0
20
0
30
0
70
128
71
30
72
22
73
21
0
VERTEX
8
OBJECT__17
10
0
20
0
30
0
70
128
71
28
72
13
73
15
0
VERTEX
8
OBJECT__17
10
0
20
0
30
0
70
128
71
4
72
8
73
1
0
SEQEND
8
OBJECT__17
0
POLYLINE
8
OBJECT__18
66
1
70
64
71
35
72
33
62
253
0
VERTEX
8
OBJECT__18
10
34.465000
20
-13.877000
30
-35.155998
70
192
0
VERTEX
8
OBJECT__18
10
34.465000
20
11.537000
30
-36.484001
70
192
0
VERTEX
8
OBJECT__18
10
34.465000
20
7.829000
30
-37.931999
70
192
0
VERTEX
8
OBJECT__18
10
34.465000
20
26.389000
30
-22.128000
70
192
0
VERTEX
8
OBJECT__18
10
34.465000
20
-21.479000
30
-28.997000
70
192
0
VERTEX
8
OBJECT__18
10
34.465000
20
-25.122000
30
-24.580000
70
192
0
VERTEX
8
OBJECT__18
10
34.465000
20
-14.687000
30
-34.730999
70
192
0
VERTEX
8
OBJECT__18
10
34.465000
20
-0.014000
30
-39.039001
70
192
0
VERTEX
8
OBJECT__18
10
34.465000
20
-7.088000
30
-38.089001
70
192
0
VERTEX
8
OBJECT__18
10
34.465000
20
-10.273000
30
-37.047001
70
192
0
VERTEX
8
OBJECT__18
10
34.465000
20
-1.373000
30
-39.082001
70
192
0
VERTEX
8
OBJECT__18
10
34.465000
20
-6.213000
30
-38.375000
70
192
0
VERTEX
8
OBJECT__18
10
34.465000
20
7.071000
30
-38.091999
70
192
0
VERTEX
8
OBJECT__18
10
34.465000
20
3.016000
30
-38.945000
70
192
0
VERTEX
8
OBJECT__18
10
34.465000
20
13.828000
30
-35.127998
70
192
0
VERTEX
8
OBJECT__18
10
34.465000
20
-26.691999
30
-20.763000
70
192
0
VERTEX
8
OBJECT__18
10
34.465000
20
-26.995001
30
-19.415001
70
192
0
VERTEX
8
OBJECT__18
10
34.465000
20
-20.052000
30
-30.329000
70
192
0
VERTEX
8
OBJECT__18
10
34.465000
20
-17.476000
30
-32.733002
70
192
0
VERTEX
8
OBJECT__18
10
34.465000
20
19.017000
30
-31.430000
70
192
0
VERTEX
8
OBJECT__18
10
34.465000
20
16.042000
30
-33.819000
70
192
0
VERTEX
8
OBJECT__18
10
34.465000
20
25.802999
30
-23.379000
70
192
0
VERTEX
8
OBJECT__18
10
34.465000
20
25.124001
30
-24.582001
70
192
0
VERTEX
8
OBJECT__18
10
34.465000
20
-27.139000
30
-16.528999
70
192
0
VERTEX
8
OBJECT__18
10
34.465000
20
-25.799000
30
-23.379999
70
192
0
VERTEX
8
OBJECT__18
10
34.465000
20
-26.305000
30
-22.483000
70
192
0
VERTEX
8
OBJECT__18
10
34.465000
20
20.035000
30
-30.358999
70
192
0
VERTEX
8
OBJECT__18
10
34.465000
20
23.231001
30
-26.997999
70
192
0
VERTEX
8
OBJECT__18
10
34.465000
20
26.309000
30
-22.483000
70
192
0
VERTEX
8
OBJECT__18
10
34.465000
20
-26.385000
30
-22.128000
70
192
0
VERTEX
8
OBJECT__18
10
34.465000
20
-27.195000
30
-15.095000
70
192
0
VERTEX
8
OBJECT__18
10
34.465000
20
27.142000
30
-16.528999
70
192
0
VERTEX
8
OBJECT__18
10
34.465000
20
26.999001
30
-19.415001
70
192
0
VERTEX
8
OBJECT__18
10
34.465000
20
27.198000
30
-15.095000
70
192
0
VERTEX
8
OBJECT__18
10
34.465000
20
26.695999
30
-20.763000
70
192
0
VERTEX
8
OBJECT__18
10
0
20
0
30
0
70
128
71
1
72
2
73
3
0
VERTEX
8
OBJECT__18
10
0
20
0
30
0
70
128
71
4
72
5
73
6
0
VERTEX
8
OBJECT__18
10
0
20
0
30
0
70
128
71
4
72
1
73
7
0
VERTEX
8
OBJECT__18
10
0
20
0
30
0
70
128
71
8
72
9
73
10
0
VERTEX
8
OBJECT__18
10
0
20
0
30
0
70
128
71
8
72
11
73
12
0
VERTEX
8
OBJECT__18
10
0
20
0
30
0
70
128
71
1
72
13
73
14
0
VERTEX
8
OBJECT__18
10
0
20
0
30
0
70
128
71
1
72
15
73
2
0
VERTEX
8
OBJECT__18
10
0
20
0
30
0
70
128
71
4
72
16
73
17
0
VERTEX
8
OBJECT__18
10
0
20
0
30
0
70
128
71
4
72
18
73
5
0
VERTEX
8
OBJECT__18
10
0
20
0
30
0
70
128
71
7
72
19
73
4
0
VERTEX
8
OBJECT__18
10
0
20
0
30
0
70
128
71
12
72
9
73
8
0
VERTEX
8
OBJECT__18
10
0
20
0
30
0
70
128
71
3
72
13
73
1
0
VERTEX
8
OBJECT__18
10
0
20
0
30
0
70
128
71
1
72
20
73
21
0
VERTEX
8
OBJECT__18
10
0
20
0
30
0
70
128
71
1
72
22
73
23
0
VERTEX
8
OBJECT__18
10
0
20
0
30
0
70
128
71
17
72
24
73
4
0
VERTEX
8
OBJECT__18
10
0
20
0
30
0
70
128
71
4
72
25
73
26
0
VERTEX
8
OBJECT__18
10
0
20
0
30
0
70
128
71
19
72
18
73
4
0
VERTEX
8
OBJECT__18
10
0
20
0
30
0
70
128
71
14
72
8
73
1
0
VERTEX
8
OBJECT__18
10
0
20
0
30
0
70
128
71
1
72
27
73
20
0
VERTEX
8
OBJECT__18
10
0
20
0
30
0
70
128
71
23
72
28
73
1
0
VERTEX
8
OBJECT__18
10
0
20
0
30
0
70
128
71
1
72
4
73
29
0
VERTEX
8
OBJECT__18
10
0
20
0
30
0
70
128
71
4
72
30
73
16
0
VERTEX
8
OBJECT__18
10
0
20
0
30
0
70
128
71
6
72
25
73
4
0
VERTEX
8
OBJECT__18
10
0
20
0
30
0
70
128
71
21
72
15
73
1
0
VERTEX
8
OBJECT__18
10
0
20
0
30
0
70
128
71
29
72
22
73
1
0
VERTEX
8
OBJECT__18
10
0
20
0
30
0
70
128
71
31
72
32
73
33
0
VERTEX
8
OBJECT__18
10
0
20
0
30
0
70
128
71
26
72
30
73
4
0
VERTEX
8
OBJECT__18
10
0
20
0
30
0
70
128
71
28
72
27
73
1
0
VERTEX
8
OBJECT__18
10
0
20
0
30
0
70
128
71
31
72
34
73
32
0
VERTEX
8
OBJECT__18
10
0
20
0
30
0
70
128
71
10
72
1
73
8
0
VERTEX
8
OBJECT__18
10
0
20
0
30
0
70
128
71
33
72
35
73
31
0
VERTEX
8
OBJECT__18
10
0
20
0
30
0
70
128
71
35
72
4
73
31
0
VERTEX
8
OBJECT__18
10
0
20
0
30
0
70
128
71
24
72
31
73
4
0
SEQEND
8
OBJECT__18
0
POLYLINE
8
OBJECT__19
66
1
70
64
71
280
72
387
62
253
0
VERTEX
8
OBJECT__19
10
73.708000
20
0.010000
30
-109.776001
70
192
0
VERTEX
8
OBJECT__19
10
73.539001
20
-7.726000
30
-108.363998
70
192
0
VERTEX
8
OBJECT__19
10
72.426003
20
-7.372000
30
-107.623001
70
192
0
VERTEX
8
OBJECT__19
10
71.945999
20
0.009000
30
-107.737999
70
192
0
VERTEX
8
OBJECT__19
10
71.855003
20
-2.018000
30
-106.385002
70
192
0
VERTEX
8
OBJECT__19
10
71.851997
20
-0.012000
30
-106.366997
70
192
0
VERTEX
8
OBJECT__19
10
71.778999
20
-6.890000
30
-106.500000
70
192
0
VERTEX
8
OBJECT__19
10
71.726997
20
-6.007000
30
-105.494003
70
192
0
VERTEX
8
OBJECT__19
10
71.702003
20
-6.402000
30
-105.297997
70
192
0
VERTEX
8
OBJECT__19
10
66.607002
20
-21.898001
30
-59.215000
70
192
0
VERTEX
8
OBJECT__19
10
64.749001
20
-22.943001
30
-43.453999
70
192
0
VERTEX
8
OBJECT__19
10
64.153000
20
-22.327000
30
-43.500000
70
192
0
VERTEX
8
OBJECT__19
10
74.833000
20
-5.879000
30
-109.133003
70
192
0
VERTEX
8
OBJECT__19
10
74.773003
20
-7.786000
30
-108.613998
70
192
0
VERTEX
8
OBJECT__19
10
74.903000
20
-3.645000
30
-109.740997
70
192
0
VERTEX
8
OBJECT__19
10
74.928001
20
0.014000
30
-109.945999
70
192
0
VERTEX
8
OBJECT__19
10
68.700996
20
-21.191000
30
-75.071999
70
192
0
VERTEX
8
OBJECT__19
10
68.133003
20
-20.381001
30
-75.119003
70
192
0
VERTEX
8
OBJECT__19
10
70.125000
20
-19.997999
30
-90.528000
70
192
0
VERTEX
8
OBJECT__19
10
73.063004
20
-14.345000
30
-104.164001
70
192
0
VERTEX
8
OBJECT__19
10
72.323997
20
-18.944000
30
-98.336998
70
192
0
VERTEX
8
OBJECT__19
10
71.162003
20
-18.068001
30
-98.082001
70
192
0
VERTEX
8
OBJECT__19
10
71.949997
20
-13.713000
30
-103.621002
70
192
0
VERTEX
8
OBJECT__19
10
70.686996
20
-20.615999
30
-90.533997
70
192
0
VERTEX
8
OBJECT__19
10
71.361000
20
-21.059999
30
-90.508003
70
192
0
VERTEX
8
OBJECT__19
10
66.021004
20
-21.125999
30
-59.256001
70
192
0
VERTEX
8
OBJECT__19
10
69.447998
20
-21.766001
30
-74.994003
70
192
0
VERTEX
8
OBJECT__19
10
70.250000
20
-22.080000
30
-74.901001
70
192
0
VERTEX
8
OBJECT__19
10
73.986000
20
-16.913000
30
-101.695999
70
192
0
VERTEX
8
OBJECT__19
10
73.792999
20
-18.267000
30
-100.052002
70
192
0
VERTEX
8
OBJECT__19
10
74.278999
20
-14.544000
30
-104.207001
70
192
0
VERTEX
8
OBJECT__19
10
74.194000
20
-15.444000
30
-103.478996
70
192
0
VERTEX
8
OBJECT__19
10
74.551003
20
-11.646000
30
-106.552002
70
192
0
VERTEX
8
OBJECT__19
10
74.767998
20
-7.872000
30
-108.570000
70
192
0
VERTEX
8
OBJECT__19
10
74.570999
20
-11.434000
30
-106.723000
70
192
0
VERTEX
8
OBJECT__19
10
73.008003
20
-21.077000
30
-92.603996
70
192
0
VERTEX
8
OBJECT__19
10
72.766998
20
-21.302000
30
-90.374001
70
192
0
VERTEX
8
OBJECT__19
10
72.074997
20
-21.315001
30
-90.454002
70
192
0
VERTEX
8
OBJECT__19
10
73.143997
20
-20.743000
30
-93.853996
70
192
0
VERTEX
8
OBJECT__19
10
73.450996
20
-19.990999
30
-96.664001
70
192
0
VERTEX
8
OBJECT__19
10
73.611000
20
-19.183001
30
-98.251999
70
192
0
VERTEX
8
OBJECT__19
10
67.355003
20
-22.443001
30
-59.139999
70
192
0
VERTEX
8
OBJECT__19
10
72.271004
20
-21.764000
30
-85.778999
70
192
0
VERTEX
8
OBJECT__19
10
71.376999
20
-22.046000
30
-78.647003
70
192
0
VERTEX
8
OBJECT__19
10
68.152000
20
-22.737000
30
-59.048000
70
192
0
VERTEX
8
OBJECT__19
10
70.898003
20
-22.197001
30
-74.820000
70
192
0
VERTEX
8
OBJECT__19
10
66.195000
20
-23.603001
30
-43.294998
70
192
0
VERTEX
8
OBJECT__19
10
65.456001
20
-23.372000
30
-43.382000
70
192
0
VERTEX
8
OBJECT__19
10
63.097000
20
-24.454000
30
-28.187000
70
192
0
VERTEX
8
OBJECT__19
10
60.720001
20
-24.862000
30
-24.046000
70
192
0
VERTEX
8
OBJECT__19
10
59.945000
20
-24.577999
30
-25.003000
70
192
0
VERTEX
8
OBJECT__19
10
64.582001
20
-23.858000
30
-35.751999
70
192
0
VERTEX
8
OBJECT__19
10
63.337002
20
-22.974001
30
-35.909000
70
192
0
VERTEX
8
OBJECT__19
10
62.076000
20
-23.992001
30
-28.938999
70
192
0
VERTEX
8
OBJECT__19
10
49.280998
20
-25.796000
30
-21.091999
70
192
0
VERTEX
8
OBJECT__19
10
49.207001
20
-25.493000
30
-22.319000
70
192
0
VERTEX
8
OBJECT__19
10
56.369999
20
-25.041000
30
-22.608999
70
192
0
VERTEX
8
OBJECT__19
10
56.623001
20
-25.282000
30
-21.504000
70
192
0
VERTEX
8
OBJECT__19
10
63.445000
20
-24.700001
30
-25.853001
70
192
0
VERTEX
8
OBJECT__19
10
61.691002
20
-24.927999
30
-23.282000
70
192
0
VERTEX
8
OBJECT__19
10
64.067001
20
-24.589001
30
-27.420000
70
192
0
VERTEX
8
OBJECT__19
10
65.926003
20
-24.091000
30
-35.540001
70
192
0
VERTEX
8
OBJECT__19
10
67.968002
20
-23.212999
30
-51.546001
70
192
0
VERTEX
8
OBJECT__19
10
68.908997
20
-22.823999
30
-58.950001
70
192
0
VERTEX
8
OBJECT__19
10
68.768997
20
-22.868000
30
-57.827000
70
192
0
VERTEX
8
OBJECT__19
10
65.888000
20
-24.108000
30
-35.238998
70
192
0
VERTEX
8
OBJECT__19
10
65.032997
20
-24.417999
30
-29.853001
70
192
0
VERTEX
8
OBJECT__19
10
53.938999
20
-25.601999
30
-20.041000
70
192
0
VERTEX
8
OBJECT__19
10
56.826000
20
-25.386000
30
-20.375999
70
192
0
VERTEX
8
OBJECT__19
10
50.209000
20
-25.871000
30
-19.878000
70
192
0
VERTEX
8
OBJECT__19
10
59.407001
20
-25.165001
30
-21.375999
70
192
0
VERTEX
8
OBJECT__19
10
61.469002
20
-24.951000
30
-23.097000
70
192
0
VERTEX
8
OBJECT__19
10
63.514000
20
-19.997000
30
-43.455002
70
192
0
VERTEX
8
OBJECT__19
10
64.931999
20
-18.415001
30
-50.997002
70
192
0
VERTEX
8
OBJECT__19
10
65.306000
20
-18.252001
30
-53.525002
70
192
0
VERTEX
8
OBJECT__19
10
64.400002
20
-18.795000
30
-47.602001
70
192
0
VERTEX
8
OBJECT__19
10
63.737999
20
-19.267000
30
-43.379002
70
192
0
VERTEX
8
OBJECT__19
10
65.820000
20
-18.455999
30
-59.153000
70
192
0
VERTEX
8
OBJECT__19
10
72.594002
20
0.009000
30
-108.958000
70
192
0
VERTEX
8
OBJECT__19
10
69.559998
20
-17.719999
30
-90.329002
70
192
0
VERTEX
8
OBJECT__19
10
68.070000
20
-17.660000
30
-75.038002
70
192
0
VERTEX
8
OBJECT__19
10
69.011002
20
-16.906000
30
-79.964996
70
192
0
VERTEX
8
OBJECT__19
10
68.380997
20
-17.066000
30
-75.093002
70
192
0
VERTEX
8
OBJECT__19
10
68.365997
20
-17.070000
30
-74.980003
70
192
0
VERTEX
8
OBJECT__19
10
69.570999
20
-17.000999
30
-87.984001
70
192
0
VERTEX
8
OBJECT__19
10
71.307999
20
-12.841000
30
-102.748001
70
192
0
VERTEX
8
OBJECT__19
10
70.523003
20
-16.839001
30
-97.568001
70
192
0
VERTEX
8
OBJECT__19
10
70.718002
20
-14.926000
30
-98.352997
70
192
0
VERTEX
8
OBJECT__19
10
71.098000
20
-12.928000
30
-100.835999
70
192
0
VERTEX
8
OBJECT__19
10
71.167999
20
-12.563000
30
-101.290001
70
192
0
VERTEX
8
OBJECT__19
10
70.514999
20
-15.530000
30
-96.922997
70
192
0
VERTEX
8
OBJECT__19
10
71.526001
20
-9.176000
30
-103.919998
70
192
0
VERTEX
8
OBJECT__19
10
71.689003
20
-6.595000
30
-105.202003
70
192
0
VERTEX
8
OBJECT__19
10
71.232002
20
-11.949000
30
-101.766998
70
192
0
VERTEX
8
OBJECT__19
10
69.552002
20
-18.475000
30
-90.417000
70
192
0
VERTEX
8
OBJECT__19
10
69.757004
20
-17.032000
30
-90.648003
70
192
0
VERTEX
8
OBJECT__19
10
70.223999
20
-16.395000
30
-94.875000
70
192
0
VERTEX
8
OBJECT__19
10
69.727997
20
-17.028000
30
-90.232002
70
192
0
VERTEX
8
OBJECT__19
10
67.832001
20
-18.490999
30
-75.096001
70
192
0
VERTEX
8
OBJECT__19
10
66.130997
20
-17.892000
30
-59.085999
70
192
0
VERTEX
8
OBJECT__19
10
67.530998
20
-17.282000
30
-68.519997
70
192
0
VERTEX
8
OBJECT__19
10
67.835999
20
-19.436001
30
-75.126999
70
192
0
VERTEX
8
OBJECT__19
10
69.737000
20
-19.259001
30
-90.487000
70
192
0
VERTEX
8
OBJECT__19
10
65.636002
20
-19.288000
30
-59.217999
70
192
0
VERTEX
8
OBJECT__19
10
65.689003
20
-20.214001
30
-59.256001
70
192
0
VERTEX
8
OBJECT__19
10
63.523998
20
-20.774000
30
-43.497002
70
192
0
VERTEX
8
OBJECT__19
10
61.164001
20
-23.231001
30
-29.577999
70
192
0
VERTEX
8
OBJECT__19
10
59.194000
20
-24.105000
30
-25.903999
70
192
0
VERTEX
8
OBJECT__19
10
58.443001
20
-23.445000
30
-26.740000
70
192
0
VERTEX
8
OBJECT__19
10
63.377998
20
-19.525000
30
-41.076000
70
192
0
VERTEX
8
OBJECT__19
10
62.616001
20
-21.621000
30
-35.951000
70
192
0
VERTEX
8
OBJECT__19
10
62.903999
20
-19.863001
30
-38.049999
70
192
0
VERTEX
8
OBJECT__19
10
62.484001
20
-20.316000
30
-35.910000
70
192
0
VERTEX
8
OBJECT__19
10
60.584000
20
-22.118999
30
-30.400000
70
192
0
VERTEX
8
OBJECT__19
10
62.146999
20
-20.681000
30
-34.189999
70
192
0
VERTEX
8
OBJECT__19
10
62.237999
20
-20.582001
30
-34.653999
70
192
0
VERTEX
8
OBJECT__19
10
60.445000
20
-22.246000
30
-30.063999
70
192
0
VERTEX
8
OBJECT__19
10
49.123001
20
-25.028999
30
-23.495001
70
192
0
VERTEX
8
OBJECT__19
10
49.033001
20
-24.427000
30
-24.580999
70
192
0
VERTEX
8
OBJECT__19
10
53.930000
20
-24.261999
30
-24.549000
70
192
0
VERTEX
8
OBJECT__19
10
56.113998
20
-24.665001
30
-23.674999
70
192
0
VERTEX
8
OBJECT__19
10
54.993999
20
-24.226000
30
-24.542000
70
192
0
VERTEX
8
OBJECT__19
10
58.189999
20
-23.596001
30
-26.319000
70
192
0
VERTEX
8
OBJECT__19
10
58.223000
20
-23.576000
30
-26.375000
70
192
0
VERTEX
8
OBJECT__19
10
56.646999
20
-24.052000
30
-24.976000
70
192
0
VERTEX
8
OBJECT__19
10
55.837002
20
-24.136999
30
-24.763000
70
192
0
VERTEX
8
OBJECT__19
10
63.734001
20
-21.577000
30
-43.514999
70
192
0
VERTEX
8
OBJECT__19
10
65.818001
20
18.459999
30
-59.139000
70
192
0
VERTEX
8
OBJECT__19
10
68.068001
20
17.664000
30
-75.024002
70
192
0
VERTEX
8
OBJECT__19
10
68.315002
20
17.042000
30
-73.886002
70
192
0
VERTEX
8
OBJECT__19
10
68.420998
20
17.033001
30
-74.955002
70
192
0
VERTEX
8
OBJECT__19
10
62.615002
20
21.625999
30
-35.941002
70
192
0
VERTEX
8
OBJECT__19
10
62.216999
20
20.570000
30
-34.681000
70
192
0
VERTEX
8
OBJECT__19
10
61.340000
20
21.386000
30
-32.013000
70
192
0
VERTEX
8
OBJECT__19
10
61.159000
20
23.237000
30
-29.565001
70
192
0
VERTEX
8
OBJECT__19
10
62.520000
20
20.285000
30
-35.881001
70
192
0
VERTEX
8
OBJECT__19
10
62.436001
20
20.367001
30
-35.345001
70
192
0
VERTEX
8
OBJECT__19
10
60.577000
20
21.992001
30
-30.511999
70
192
0
VERTEX
8
OBJECT__19
10
49.132000
20
25.030001
30
-23.493000
70
192
0
VERTEX
8
OBJECT__19
10
52.337002
20
24.854000
30
-23.496000
70
192
0
VERTEX
8
OBJECT__19
10
51.902000
20
24.289000
30
-24.576000
70
192
0
VERTEX
8
OBJECT__19
10
52.258999
20
24.274000
30
-24.586000
70
192
0
VERTEX
8
OBJECT__19
10
56.105999
20
24.641001
30
-23.664000
70
192
0
VERTEX
8
OBJECT__19
10
59.158001
20
24.098000
30
-25.886999
70
192
0
VERTEX
8
OBJECT__19
10
57.491001
20
23.788000
30
-25.632999
70
192
0
VERTEX
8
OBJECT__19
10
58.358002
20
23.417999
30
-26.759001
70
192
0
VERTEX
8
OBJECT__19
10
58.171001
20
23.497999
30
-26.516001
70
192
0
VERTEX
8
OBJECT__19
10
55.827999
20
24.118999
30
-24.680000
70
192
0
VERTEX
8
OBJECT__19
10
53.919998
20
24.201000
30
-24.629999
70
192
0
VERTEX
8
OBJECT__19
10
60.344002
20
22.177999
30
-30.052999
70
192
0
VERTEX
8
OBJECT__19
10
59.278999
20
23.025000
30
-27.954000
70
192
0
VERTEX
8
OBJECT__19
10
65.309998
20
18.278999
30
-53.514000
70
192
0
VERTEX
8
OBJECT__19
10
64.526001
20
18.782000
30
-48.562000
70
192
0
VERTEX
8
OBJECT__19
10
63.511002
20
20.002001
30
-43.438000
70
192
0
VERTEX
8
OBJECT__19
10
66.166000
20
17.797001
30
-59.060001
70
192
0
VERTEX
8
OBJECT__19
10
65.931000
20
17.879000
30
-57.438000
70
192
0
VERTEX
8
OBJECT__19
10
63.703999
20
19.311001
30
-43.372002
70
192
0
VERTEX
8
OBJECT__19
10
63.178001
20
19.649000
30
-40.049999
70
192
0
VERTEX
8
OBJECT__19
10
63.521999
20
20.780001
30
-43.480999
70
192
0
VERTEX
8
OBJECT__19
10
65.634003
20
19.292000
30
-59.203999
70
192
0
VERTEX
8
OBJECT__19
10
63.335999
20
22.979000
30
-35.898998
70
192
0
VERTEX
8
OBJECT__19
10
56.370998
20
25.034000
30
-22.576000
70
192
0
VERTEX
8
OBJECT__19
10
49.210999
20
25.495001
30
-22.316000
70
192
0
VERTEX
8
OBJECT__19
10
59.921001
20
24.577999
30
-24.986000
70
192
0
VERTEX
8
OBJECT__19
10
62.070999
20
23.997999
30
-28.924999
70
192
0
VERTEX
8
OBJECT__19
10
63.731998
20
21.582001
30
-43.498001
70
192
0
VERTEX
8
OBJECT__19
10
65.686996
20
20.218000
30
-59.242001
70
192
0
VERTEX
8
OBJECT__19
10
64.151001
20
22.330999
30
-43.484001
70
192
0
VERTEX
8
OBJECT__19
10
66.019997
20
21.129999
30
-59.242001
70
192
0
VERTEX
8
OBJECT__19
10
67.834000
20
19.440001
30
-75.112999
70
192
0
VERTEX
8
OBJECT__19
10
69.558998
20
17.724001
30
-90.315002
70
192
0
VERTEX
8
OBJECT__19
10
70.522003
20
16.847000
30
-97.557999
70
192
0
VERTEX
8
OBJECT__19
10
70.150002
20
16.547001
30
-94.292999
70
192
0
VERTEX
8
OBJECT__19
10
69.723000
20
17.038000
30
-90.216003
70
192
0
VERTEX
8
OBJECT__19
10
70.514000
20
15.574000
30
-96.932999
70
192
0
VERTEX
8
OBJECT__19
10
70.452003
20
15.740000
30
-96.482002
70
192
0
VERTEX
8
OBJECT__19
10
67.830002
20
18.495001
30
-75.082001
70
192
0
VERTEX
8
OBJECT__19
10
69.308998
20
16.955999
30
-83.988998
70
192
0
VERTEX
8
OBJECT__19
10
69.705002
20
17.059000
30
-90.040001
70
192
0
VERTEX
8
OBJECT__19
10
68.434998
20
17.031000
30
-75.107002
70
192
0
VERTEX
8
OBJECT__19
10
69.551003
20
18.479000
30
-90.403000
70
192
0
VERTEX
8
OBJECT__19
10
71.778000
20
6.906000
30
-106.495003
70
192
0
VERTEX
8
OBJECT__19
10
71.709999
20
6.350000
30
-105.364998
70
192
0
VERTEX
8
OBJECT__19
10
71.483002
20
9.693000
30
-103.587997
70
192
0
VERTEX
8
OBJECT__19
10
71.306999
20
12.854000
30
-102.738998
70
192
0
VERTEX
8
OBJECT__19
10
71.091003
20
13.077000
30
-100.778999
70
192
0
VERTEX
8
OBJECT__19
10
71.223000
20
11.933000
30
-101.727997
70
192
0
VERTEX
8
OBJECT__19
10
71.108002
20
12.927000
30
-100.903999
70
192
0
VERTEX
8
OBJECT__19
10
70.621002
20
15.286000
30
-97.713997
70
192
0
VERTEX
8
OBJECT__19
10
71.848999
20
2.388000
30
-106.344002
70
192
0
VERTEX
8
OBJECT__19
10
71.851997
20
0.007000
30
-106.365997
70
192
0
VERTEX
8
OBJECT__19
10
69.735001
20
19.264000
30
-90.472000
70
192
0
VERTEX
8
OBJECT__19
10
71.160004
20
18.077000
30
-98.070999
70
192
0
VERTEX
8
OBJECT__19
10
68.130997
20
20.385000
30
-75.105003
70
192
0
VERTEX
8
OBJECT__19
10
70.123001
20
20.003000
30
-90.513000
70
192
0
VERTEX
8
OBJECT__19
10
71.948997
20
13.727000
30
-103.612000
70
192
0
VERTEX
8
OBJECT__19
10
72.425003
20
7.389000
30
-107.617996
70
192
0
VERTEX
8
OBJECT__19
10
66.605003
20
21.903000
30
-59.201000
70
192
0
VERTEX
8
OBJECT__19
10
68.699997
20
21.195000
30
-75.057999
70
192
0
VERTEX
8
OBJECT__19
10
64.581001
20
23.862000
30
-35.741001
70
192
0
VERTEX
8
OBJECT__19
10
49.282001
20
25.799999
30
-21.087000
70
192
0
VERTEX
8
OBJECT__19
10
56.633999
20
25.284000
30
-21.447001
70
192
0
VERTEX
8
OBJECT__19
10
58.979000
20
25.069000
30
-22.471001
70
192
0
VERTEX
8
OBJECT__19
10
63.091999
20
24.458000
30
-28.172001
70
192
0
VERTEX
8
OBJECT__19
10
65.454002
20
23.377001
30
-43.366001
70
192
0
VERTEX
8
OBJECT__19
10
64.747002
20
22.947001
30
-43.438000
70
192
0
VERTEX
8
OBJECT__19
10
67.352997
20
22.447001
30
-59.126999
70
192
0
VERTEX
8
OBJECT__19
10
64.819000
20
24.462000
30
-29.249001
70
192
0
VERTEX
8
OBJECT__19
10
65.682999
20
24.193001
30
-33.816002
70
192
0
VERTEX
8
OBJECT__19
10
64.046997
20
24.594000
30
-27.412001
70
192
0
VERTEX
8
OBJECT__19
10
50.181999
20
25.877001
30
-19.867001
70
192
0
VERTEX
8
OBJECT__19
10
55.959999
20
25.459999
30
-20.142000
70
192
0
VERTEX
8
OBJECT__19
10
49.341000
20
25.937000
30
-19.843000
70
192
0
VERTEX
8
OBJECT__19
10
56.856998
20
25.386000
30
-20.408001
70
192
0
VERTEX
8
OBJECT__19
10
58.832001
20
25.224001
30
-20.993999
70
192
0
VERTEX
8
OBJECT__19
10
60.709999
20
24.865999
30
-24.027000
70
192
0
VERTEX
8
OBJECT__19
10
61.441002
20
24.957001
30
-23.089001
70
192
0
VERTEX
8
OBJECT__19
10
63.192001
20
24.740999
30
-25.375000
70
192
0
VERTEX
8
OBJECT__19
10
60.303001
20
25.077999
30
-22.066000
70
192
0
VERTEX
8
OBJECT__19
10
61.104000
20
24.997999
30
-22.649000
70
192
0
VERTEX
8
OBJECT__19
10
59.491001
20
25.158001
30
-21.474001
70
192
0
VERTEX
8
OBJECT__19
10
68.150002
20
22.740999
30
-59.034000
70
192
0
VERTEX
8
OBJECT__19
10
66.627998
20
23.780001
30
-41.054001
70
192
0
VERTEX
8
OBJECT__19
10
66.903999
20
23.680000
30
-43.185001
70
192
0
VERTEX
8
OBJECT__19
10
66.193001
20
23.607000
30
-43.278000
70
192
0
VERTEX
8
OBJECT__19
10
65.906998
20
24.094999
30
-35.530998
70
192
0
VERTEX
8
OBJECT__19
10
67.607002
20
23.424999
30
-48.597000
70
192
0
VERTEX
8
OBJECT__19
10
70.248001
20
22.084000
30
-74.886002
70
192
0
VERTEX
8
OBJECT__19
10
70.684998
20
20.621000
30
-90.518997
70
192
0
VERTEX
8
OBJECT__19
10
72.321999
20
18.952999
30
-98.325996
70
192
0
VERTEX
8
OBJECT__19
10
69.445999
20
21.770000
30
-74.980003
70
192
0
VERTEX
8
OBJECT__19
10
71.359001
20
21.066000
30
-90.492996
70
192
0
VERTEX
8
OBJECT__19
10
73.538002
20
7.744000
30
-108.358002
70
192
0
VERTEX
8
OBJECT__19
10
73.061996
20
14.359000
30
-104.153999
70
192
0
VERTEX
8
OBJECT__19
10
73.273003
20
20.549000
30
-94.969002
70
192
0
VERTEX
8
OBJECT__19
10
73.309998
20
20.451000
30
-95.309998
70
192
0
VERTEX
8
OBJECT__19
10
73.267998
20
20.561001
30
-94.927002
70
192
0
VERTEX
8
OBJECT__19
10
73.036003
20
20.909000
30
-92.827003
70
192
0
VERTEX
8
OBJECT__19
10
73.267998
20
20.562000
30
-94.921997
70
192
0
VERTEX
8
OBJECT__19
10
72.072998
20
21.320000
30
-90.440002
70
192
0
VERTEX
8
OBJECT__19
10
72.763000
20
21.318001
30
-90.355003
70
192
0
VERTEX
8
OBJECT__19
10
68.948997
20
22.937000
30
-58.936001
70
192
0
VERTEX
8
OBJECT__19
10
71.007004
20
22.188999
30
-74.791000
70
192
0
VERTEX
8
OBJECT__19
10
71.226997
20
22.107000
30
-76.564003
70
192
0
VERTEX
8
OBJECT__19
10
72.612000
20
21.544001
30
-88.987000
70
192
0
VERTEX
8
OBJECT__19
10
71.165001
20
22.132000
30
-76.012001
70
192
0
VERTEX
8
OBJECT__19
10
74.504997
20
12.146000
30
-106.135002
70
192
0
VERTEX
8
OBJECT__19
10
74.709000
20
9.147000
30
-108.018997
70
192
0
VERTEX
8
OBJECT__19
10
74.278000
20
14.531000
30
-104.179001
70
192
0
VERTEX
8
OBJECT__19
10
74.439003
20
13.135000
30
-105.514000
70
192
0
VERTEX
8
OBJECT__19
10
73.920998
20
17.403000
30
-101.133003
70
192
0
VERTEX
8
OBJECT__19
10
74.012001
20
16.836000
30
-101.974998
70
192
0
VERTEX
8
OBJECT__19
10
73.613998
20
19.263000
30
-98.278999
70
192
0
VERTEX
8
OBJECT__19
10
73.637001
20
19.171000
30
-98.510002
70
192
0
VERTEX
8
OBJECT__19
10
74.861000
20
5.371000
30
-109.388000
70
192
0
VERTEX
8
OBJECT__19
10
74.935997
20
1.080000
30
-110.005997
70
192
0
VERTEX
8
OBJECT__19
10
74.817001
20
6.454000
30
-108.995003
70
192
0
VERTEX
8
OBJECT__19
10
74.761002
20
7.862000
30
-108.485001
70
192
0
VERTEX
8
OBJECT__19
10
74.930000
20
0.306000
30
-109.961998
70
192
0
VERTEX
8
OBJECT__19
10
34.465000
20
-26.691999
30
-20.763000
70
192
0
VERTEX
8
OBJECT__19
10
42.358002
20
-26.434000
30
-19.618000
70
192
0
VERTEX
8
OBJECT__19
10
49.344002
20
-25.933001
30
-19.850000
70
192
0
VERTEX
8
OBJECT__19
10
34.465000
20
-26.385000
30
-22.128000
70
192
0
VERTEX
8
OBJECT__19
10
34.465000
20
-26.305000
30
-22.483000
70
192
0
VERTEX
8
OBJECT__19
10
34.465000
20
-25.799000
30
-23.379999
70
192
0
VERTEX
8
OBJECT__19
10
36.723000
20
-25.025000
30
-24.565001
70
192
0
VERTEX
8
OBJECT__19
10
48.522999
20
-24.444000
30
-24.584999
70
192
0
VERTEX
8
OBJECT__19
10
34.465000
20
-25.122000
30
-24.580000
70
192
0
VERTEX
8
OBJECT__19
10
34.533001
20
-25.118000
30
-24.580999
70
192
0
VERTEX
8
OBJECT__19
10
34.465000
20
25.802999
30
-23.379000
70
192
0
VERTEX
8
OBJECT__19
10
45.917999
20
24.579000
30
-24.563000
70
192
0
VERTEX
8
OBJECT__19
10
49.044998
20
24.427999
30
-24.570000
70
192
0
VERTEX
8
OBJECT__19
10
35.105999
20
25.098000
30
-24.577000
70
192
0
VERTEX
8
OBJECT__19
10
34.465000
20
26.309000
30
-22.483000
70
192
0
VERTEX
8
OBJECT__19
10
34.465000
20
26.695999
30
-20.763000
70
192
0
VERTEX
8
OBJECT__19
10
34.465000
20
26.999001
30
-19.415001
70
192
0
VERTEX
8
OBJECT__19
10
34.465000
20
26.389000
30
-22.128000
70
192
0
VERTEX
8
OBJECT__19
10
34.465000
20
25.124001
30
-24.582001
70
192
0
VERTEX
8
OBJECT__19
10
34.465000
20
-26.995001
30
-19.415001
70
192
0
VERTEX
8
OBJECT__19
10
66.903000
20
-23.671000
30
-43.202000
70
192
0
VERTEX
8
OBJECT__19
10
0
20
0
30
0
70
128
71
1
72
2
73
3
0
VERTEX
8
OBJECT__19
10
0
20
0
30
0
70
128
71
4
72
5
73
6
0
VERTEX
8
OBJECT__19
10
0
20
0
30
0
70
128
71
7
72
8
73
5
0
VERTEX
8
OBJECT__19
10
0
20
0
30
0
70
128
71
5
72
4
73
7
0
VERTEX
8
OBJECT__19
10
0
20
0
30
0
70
128
71
7
72
9
73
8
0
VERTEX
8
OBJECT__19
10
0
20
0
30
0
70
128
71
10
72
11
73
12
0
VERTEX
8
OBJECT__19
10
0
20
0
30
0
70
128
71
2
72
13
73
14
0
VERTEX
8
OBJECT__19
10
0
20
0
30
0
70
128
71
2
72
1
73
15
0
VERTEX
8
OBJECT__19
10
0
20
0
30
0
70
128
71
1
72
16
73
15
0
VERTEX
8
OBJECT__19
10
0
20
0
30
0
70
128
71
15
72
13
73
2
0
VERTEX
8
OBJECT__19
10
0
20
0
30
0
70
128
71
17
72
18
73
19
0
VERTEX
8
OBJECT__19
10
0
20
0
30
0
70
128
71
20
72
21
73
22
0
VERTEX
8
OBJECT__19
10
0
20
0
30
0
70
128
71
2
72
20
73
23
0
VERTEX
8
OBJECT__19
10
0
20
0
30
0
70
128
71
24
72
19
73
22
0
VERTEX
8
OBJECT__19
10
0
20
0
30
0
70
128
71
21
72
25
73
24
0
VERTEX
8
OBJECT__19
10
0
20
0
30
0
70
128
71
26
72
18
73
17
0
VERTEX
8
OBJECT__19
10
0
20
0
30
0
70
128
71
27
72
17
73
24
0
VERTEX
8
OBJECT__19
10
0
20
0
30
0
70
128
71
10
72
17
73
27
0
VERTEX
8
OBJECT__19
10
0
20
0
30
0
70
128
71
28
72
27
73
25
0
VERTEX
8
OBJECT__19
10
0
20
0
30
0
70
128
71
21
72
20
73
29
0
VERTEX
8
OBJECT__19
10
0
20
0
30
0
70
128
71
29
72
30
73
21
0
VERTEX
8
OBJECT__19
10
0
20
0
30
0
70
128
71
20
72
31
73
32
0
VERTEX
8
OBJECT__19
10
0
20
0
30
0
70
128
71
32
72
29
73
20
0
VERTEX
8
OBJECT__19
10
0
20
0
30
0
70
128
71
20
72
2
73
33
0
VERTEX
8
OBJECT__19
10
0
20
0
30
0
70
128
71
2
72
34
73
35
0
VERTEX
8
OBJECT__19
10
0
20
0
30
0
70
128
71
35
72
33
73
2
0
VERTEX
8
OBJECT__19
10
0
20
0
30
0
70
128
71
36
72
37
73
38
0
VERTEX
8
OBJECT__19
10
0
20
0
30
0
70
128
71
25
72
39
73
36
0
VERTEX
8
OBJECT__19
10
0
20
0
30
0
70
128
71
21
72
40
73
39
0
VERTEX
8
OBJECT__19
10
0
20
0
30
0
70
128
71
21
72
41
73
40
0
VERTEX
8
OBJECT__19
10
0
20
0
30
0
70
128
71
39
72
25
73
21
0
VERTEX
8
OBJECT__19
10
0
20
0
30
0
70
128
71
42
72
27
73
28
0
VERTEX
8
OBJECT__19
10
0
20
0
30
0
70
128
71
38
72
43
73
44
0
VERTEX
8
OBJECT__19
10
0
20
0
30
0
70
128
71
38
72
37
73
43
0
VERTEX
8
OBJECT__19
10
0
20
0
30
0
70
128
71
44
72
28
73
38
0
VERTEX
8
OBJECT__19
10
0
20
0
30
0
70
128
71
45
72
28
73
46
0
VERTEX
8
OBJECT__19
10
0
20
0
30
0
70
128
71
45
72
47
73
48
0
VERTEX
8
OBJECT__19
10
0
20
0
30
0
70
128
71
49
72
50
73
51
0
VERTEX
8
OBJECT__19
10
0
20
0
30
0
70
128
71
52
72
53
73
11
0
VERTEX
8
OBJECT__19
10
0
20
0
30
0
70
128
71
53
72
12
73
11
0
VERTEX
8
OBJECT__19
10
0
20
0
30
0
70
128
71
42
72
48
73
11
0
VERTEX
8
OBJECT__19
10
0
20
0
30
0
70
128
71
52
72
49
73
54
0
VERTEX
8
OBJECT__19
10
0
20
0
30
0
70
128
71
55
72
56
73
57
0
VERTEX
8
OBJECT__19
10
0
20
0
30
0
70
128
71
50
72
58
73
57
0
VERTEX
8
OBJECT__19
10
0
20
0
30
0
70
128
71
50
72
49
73
59
0
VERTEX
8
OBJECT__19
10
0
20
0
30
0
70
128
71
59
72
60
73
50
0
VERTEX
8
OBJECT__19
10
0
20
0
30
0
70
128
71
49
72
61
73
59
0
VERTEX
8
OBJECT__19
10
0
20
0
30
0
70
128
71
62
72
52
73
47
0
VERTEX
8
OBJECT__19
10
0
20
0
30
0
70
128
71
52
72
48
73
47
0
VERTEX
8
OBJECT__19
10
0
20
0
30
0
70
128
71
47
72
45
73
63
0
VERTEX
8
OBJECT__19
10
0
20
0
30
0
70
128
71
45
72
64
73
65
0
VERTEX
8
OBJECT__19
10
0
20
0
30
0
70
128
71
65
72
63
73
45
0
VERTEX
8
OBJECT__19
10
0
20
0
30
0
70
128
71
52
72
66
73
67
0
VERTEX
8
OBJECT__19
10
0
20
0
30
0
70
128
71
67
72
49
73
52
0
VERTEX
8
OBJECT__19
10
0
20
0
30
0
70
128
71
52
72
62
73
66
0
VERTEX
8
OBJECT__19
10
0
20
0
30
0
70
128
71
55
72
58
73
68
0
VERTEX
8
OBJECT__19
10
0
20
0
30
0
70
128
71
58
72
69
73
68
0
VERTEX
8
OBJECT__19
10
0
20
0
30
0
70
128
71
68
72
70
73
55
0
VERTEX
8
OBJECT__19
10
0
20
0
30
0
70
128
71
58
72
50
73
71
0
VERTEX
8
OBJECT__19
10
0
20
0
30
0
70
128
71
50
72
72
73
71
0
VERTEX
8
OBJECT__19
10
0
20
0
30
0
70
128
71
73
72
74
73
75
0
VERTEX
8
OBJECT__19
10
0
20
0
30
0
70
128
71
73
72
76
73
74
0
VERTEX
8
OBJECT__19
10
0
20
0
30
0
70
128
71
73
72
77
73
76
0
VERTEX
8
OBJECT__19
10
0
20
0
30
0
70
128
71
75
72
78
73
73
0
VERTEX
8
OBJECT__19
10
0
20
0
30
0
70
128
71
79
72
3
73
7
0
VERTEX
8
OBJECT__19
10
0
20
0
30
0
70
128
71
80
72
81
73
82
0
VERTEX
8
OBJECT__19
10
0
20
0
30
0
70
128
71
81
72
83
73
82
0
VERTEX
8
OBJECT__19
10
0
20
0
30
0
70
128
71
81
72
84
73
83
0
VERTEX
8
OBJECT__19
10
0
20
0
30
0
70
128
71
82
72
85
73
80
0
VERTEX
8
OBJECT__19
10
0
20
0
30
0
70
128
71
86
72
87
73
88
0
VERTEX
8
OBJECT__19
10
0
20
0
30
0
70
128
71
88
72
89
73
86
0
VERTEX
8
OBJECT__19
10
0
20
0
30
0
70
128
71
89
72
90
73
86
0
VERTEX
8
OBJECT__19
10
0
20
0
30
0
70
128
71
87
72
91
73
88
0
VERTEX
8
OBJECT__19
10
0
20
0
30
0
70
128
71
7
72
92
73
93
0
VERTEX
8
OBJECT__19
10
0
20
0
30
0
70
128
71
86
72
94
73
92
0
VERTEX
8
OBJECT__19
10
0
20
0
30
0
70
128
71
92
72
7
73
86
0
VERTEX
8
OBJECT__19
10
0
20
0
30
0
70
128
71
95
72
96
73
97
0
VERTEX
8
OBJECT__19
10
0
20
0
30
0
70
128
71
96
72
95
73
80
0
VERTEX
8
OBJECT__19
10
0
20
0
30
0
70
128
71
80
72
98
73
96
0
VERTEX
8
OBJECT__19
10
0
20
0
30
0
70
128
71
97
72
87
73
95
0
VERTEX
8
OBJECT__19
10
0
20
0
30
0
70
128
71
99
72
81
73
80
0
VERTEX
8
OBJECT__19
10
0
20
0
30
0
70
128
71
78
72
100
73
101
0
VERTEX
8
OBJECT__19
10
0
20
0
30
0
70
128
71
101
72
81
73
78
0
VERTEX
8
OBJECT__19
10
0
20
0
30
0
70
128
71
78
72
81
73
99
0
VERTEX
8
OBJECT__19
10
0
20
0
30
0
70
128
71
102
72
99
73
95
0
VERTEX
8
OBJECT__19
10
0
20
0
30
0
70
128
71
23
72
22
73
87
0
VERTEX
8
OBJECT__19
10
0
20
0
30
0
70
128
71
23
72
86
73
7
0
VERTEX
8
OBJECT__19
10
0
20
0
30
0
70
128
71
103
72
95
73
87
0
VERTEX
8
OBJECT__19
10
0
20
0
30
0
70
128
71
22
72
19
73
103
0
VERTEX
8
OBJECT__19
10
0
20
0
30
0
70
128
71
18
72
102
73
103
0
VERTEX
8
OBJECT__19
10
0
20
0
30
0
70
128
71
104
72
99
73
102
0
VERTEX
8
OBJECT__19
10
0
20
0
30
0
70
128
71
105
72
102
73
18
0
VERTEX
8
OBJECT__19
10
0
20
0
30
0
70
128
71
106
72
104
73
105
0
VERTEX
8
OBJECT__19
10
0
20
0
30
0
70
128
71
107
72
108
73
109
0
VERTEX
8
OBJECT__19
10
0
20
0
30
0
70
128
71
110
72
77
73
73
0
VERTEX
8
OBJECT__19
10
0
20
0
30
0
70
128
71
106
72
111
73
112
0
VERTEX
8
OBJECT__19
10
0
20
0
30
0
70
128
71
111
72
113
73
112
0
VERTEX
8
OBJECT__19
10
0
20
0
30
0
70
128
71
112
72
110
73
106
0
VERTEX
8
OBJECT__19
10
0
20
0
30
0
70
128
71
73
72
78
73
104
0
VERTEX
8
OBJECT__19
10
0
20
0
30
0
70
128
71
107
72
114
73
115
0
VERTEX
8
OBJECT__19
10
0
20
0
30
0
70
128
71
115
72
111
73
107
0
VERTEX
8
OBJECT__19
10
0
20
0
30
0
70
128
71
115
72
116
73
111
0
VERTEX
8
OBJECT__19
10
0
20
0
30
0
70
128
71
107
72
117
73
114
0
VERTEX
8
OBJECT__19
10
0
20
0
30
0
70
128
71
118
72
119
73
120
0
VERTEX
8
OBJECT__19
10
0
20
0
30
0
70
128
71
120
72
121
73
118
0
VERTEX
8
OBJECT__19
10
0
20
0
30
0
70
128
71
120
72
122
73
121
0
VERTEX
8
OBJECT__19
10
0
20
0
30
0
70
128
71
108
72
123
73
124
0
VERTEX
8
OBJECT__19
10
0
20
0
30
0
70
128
71
108
72
121
73
125
0
VERTEX
8
OBJECT__19
10
0
20
0
30
0
70
128
71
125
72
123
73
108
0
VERTEX
8
OBJECT__19
10
0
20
0
30
0
70
128
71
121
72
126
73
125
0
VERTEX
8
OBJECT__19
10
0
20
0
30
0
70
128
71
54
72
51
73
108
0
VERTEX
8
OBJECT__19
10
0
20
0
30
0
70
128
71
53
72
111
73
127
0
VERTEX
8
OBJECT__19
10
0
20
0
30
0
70
128
71
111
72
106
73
127
0
VERTEX
8
OBJECT__19
10
0
20
0
30
0
70
128
71
26
72
12
73
127
0
VERTEX
8
OBJECT__19
10
0
20
0
30
0
70
128
71
53
72
54
73
107
0
VERTEX
8
OBJECT__19
10
0
20
0
30
0
70
128
71
56
72
118
73
121
0
VERTEX
8
OBJECT__19
10
0
20
0
30
0
70
128
71
51
72
57
73
121
0
VERTEX
8
OBJECT__19
10
0
20
0
30
0
70
128
71
128
72
129
73
130
0
VERTEX
8
OBJECT__19
10
0
20
0
30
0
70
128
71
129
72
131
73
130
0
VERTEX
8
OBJECT__19
10
0
20
0
30
0
70
128
71
132
72
133
73
134
0
VERTEX
8
OBJECT__19
10
0
20
0
30
0
70
128
71
134
72
135
73
132
0
VERTEX
8
OBJECT__19
10
0
20
0
30
0
70
128
71
132
72
136
73
137
0
VERTEX
8
OBJECT__19
10
0
20
0
30
0
70
128
71
137
72
133
73
132
0
VERTEX
8
OBJECT__19
10
0
20
0
30
0
70
128
71
134
72
138
73
135
0
VERTEX
8
OBJECT__19
10
0
20
0
30
0
70
128
71
139
72
140
73
141
0
VERTEX
8
OBJECT__19
10
0
20
0
30
0
70
128
71
140
72
142
73
141
0
VERTEX
8
OBJECT__19
10
0
20
0
30
0
70
128
71
143
72
144
73
145
0
VERTEX
8
OBJECT__19
10
0
20
0
30
0
70
128
71
144
72
146
73
147
0
VERTEX
8
OBJECT__19
10
0
20
0
30
0
70
128
71
147
72
145
73
144
0
VERTEX
8
OBJECT__19
10
0
20
0
30
0
70
128
71
143
72
148
73
149
0
VERTEX
8
OBJECT__19
10
0
20
0
30
0
70
128
71
149
72
140
73
143
0
VERTEX
8
OBJECT__19
10
0
20
0
30
0
70
128
71
135
72
150
73
151
0
VERTEX
8
OBJECT__19
10
0
20
0
30
0
70
128
71
151
72
144
73
135
0
VERTEX
8
OBJECT__19
10
0
20
0
30
0
70
128
71
128
72
152
73
153
0
VERTEX
8
OBJECT__19
10
0
20
0
30
0
70
128
71
153
72
154
73
128
0
VERTEX
8
OBJECT__19
10
0
20
0
30
0
70
128
71
128
72
155
73
156
0
VERTEX
8
OBJECT__19
10
0
20
0
30
0
70
128
71
156
72
152
73
128
0
VERTEX
8
OBJECT__19
10
0
20
0
30
0
70
128
71
154
72
157
73
158
0
VERTEX
8
OBJECT__19
10
0
20
0
30
0
70
128
71
136
72
132
73
159
0
VERTEX
8
OBJECT__19
10
0
20
0
30
0
70
128
71
159
72
154
73
136
0
VERTEX
8
OBJECT__19
10
0
20
0
30
0
70
128
71
154
72
159
73
160
0
VERTEX
8
OBJECT__19
10
0
20
0
30
0
70
128
71
161
72
132
73
135
0
VERTEX
8
OBJECT__19
10
0
20
0
30
0
70
128
71
162
72
143
73
140
0
VERTEX
8
OBJECT__19
10
0
20
0
30
0
70
128
71
140
72
163
73
162
0
VERTEX
8
OBJECT__19
10
0
20
0
30
0
70
128
71
164
72
144
73
143
0
VERTEX
8
OBJECT__19
10
0
20
0
30
0
70
128
71
165
72
135
73
144
0
VERTEX
8
OBJECT__19
10
0
20
0
30
0
70
128
71
159
72
166
73
167
0
VERTEX
8
OBJECT__19
10
0
20
0
30
0
70
128
71
161
72
168
73
166
0
VERTEX
8
OBJECT__19
10
0
20
0
30
0
70
128
71
166
72
132
73
161
0
VERTEX
8
OBJECT__19
10
0
20
0
30
0
70
128
71
169
72
167
73
166
0
VERTEX
8
OBJECT__19
10
0
20
0
30
0
70
128
71
160
72
167
73
170
0
VERTEX
8
OBJECT__19
10
0
20
0
30
0
70
128
71
171
72
172
73
173
0
VERTEX
8
OBJECT__19
10
0
20
0
30
0
70
128
71
173
72
174
73
171
0
VERTEX
8
OBJECT__19
10
0
20
0
30
0
70
128
71
172
72
175
73
176
0
VERTEX
8
OBJECT__19
10
0
20
0
30
0
70
128
71
176
72
173
73
172
0
VERTEX
8
OBJECT__19
10
0
20
0
30
0
70
128
71
128
72
160
73
177
0
VERTEX
8
OBJECT__19
10
0
20
0
30
0
70
128
71
129
72
171
73
178
0
VERTEX
8
OBJECT__19
10
0
20
0
30
0
70
128
71
171
72
179
73
178
0
VERTEX
8
OBJECT__19
10
0
20
0
30
0
70
128
71
178
72
180
73
129
0
VERTEX
8
OBJECT__19
10
0
20
0
30
0
70
128
71
171
72
174
73
179
0
VERTEX
8
OBJECT__19
10
0
20
0
30
0
70
128
71
177
72
181
73
171
0
VERTEX
8
OBJECT__19
10
0
20
0
30
0
70
128
71
182
72
183
73
184
0
VERTEX
8
OBJECT__19
10
0
20
0
30
0
70
128
71
184
72
185
73
182
0
VERTEX
8
OBJECT__19
10
0
20
0
30
0
70
128
71
172
72
185
73
186
0
VERTEX
8
OBJECT__19
10
0
20
0
30
0
70
128
71
185
72
187
73
188
0
VERTEX
8
OBJECT__19
10
0
20
0
30
0
70
128
71
188
72
186
73
185
0
VERTEX
8
OBJECT__19
10
0
20
0
30
0
70
128
71
186
72
189
73
172
0
VERTEX
8
OBJECT__19
10
0
20
0
30
0
70
128
71
182
72
4
73
190
0
VERTEX
8
OBJECT__19
10
0
20
0
30
0
70
128
71
4
72
191
73
190
0
VERTEX
8
OBJECT__19
10
0
20
0
30
0
70
128
71
192
72
193
73
172
0
VERTEX
8
OBJECT__19
10
0
20
0
30
0
70
128
71
172
72
181
73
192
0
VERTEX
8
OBJECT__19
10
0
20
0
30
0
70
128
71
167
72
169
73
194
0
VERTEX
8
OBJECT__19
10
0
20
0
30
0
70
128
71
170
72
192
73
181
0
VERTEX
8
OBJECT__19
10
0
20
0
30
0
70
128
71
194
72
195
73
192
0
VERTEX
8
OBJECT__19
10
0
20
0
30
0
70
128
71
196
72
197
73
182
0
VERTEX
8
OBJECT__19
10
0
20
0
30
0
70
128
71
196
72
185
73
172
0
VERTEX
8
OBJECT__19
10
0
20
0
30
0
70
128
71
79
72
4
73
182
0
VERTEX
8
OBJECT__19
10
0
20
0
30
0
70
128
71
169
72
198
73
199
0
VERTEX
8
OBJECT__19
10
0
20
0
30
0
70
128
71
200
72
161
73
165
0
VERTEX
8
OBJECT__19
10
0
20
0
30
0
70
128
71
201
72
202
73
162
0
VERTEX
8
OBJECT__19
10
0
20
0
30
0
70
128
71
162
72
202
73
203
0
VERTEX
8
OBJECT__19
10
0
20
0
30
0
70
128
71
203
72
164
73
162
0
VERTEX
8
OBJECT__19
10
0
20
0
30
0
70
128
71
204
72
165
73
164
0
VERTEX
8
OBJECT__19
10
0
20
0
30
0
70
128
71
198
72
169
73
168
0
VERTEX
8
OBJECT__19
10
0
20
0
30
0
70
128
71
200
72
205
73
206
0
VERTEX
8
OBJECT__19
10
0
20
0
30
0
70
128
71
206
72
161
73
200
0
VERTEX
8
OBJECT__19
10
0
20
0
30
0
70
128
71
207
72
198
73
206
0
VERTEX
8
OBJECT__19
10
0
20
0
30
0
70
128
71
204
72
208
73
209
0
VERTEX
8
OBJECT__19
10
0
20
0
30
0
70
128
71
204
72
210
73
208
0
VERTEX
8
OBJECT__19
10
0
20
0
30
0
70
128
71
209
72
200
73
204
0
VERTEX
8
OBJECT__19
10
0
20
0
30
0
70
128
71
202
72
201
73
211
0
VERTEX
8
OBJECT__19
10
0
20
0
30
0
70
128
71
211
72
212
73
202
0
VERTEX
8
OBJECT__19
10
0
20
0
30
0
70
128
71
201
72
213
73
211
0
VERTEX
8
OBJECT__19
10
0
20
0
30
0
70
128
71
202
72
214
73
215
0
VERTEX
8
OBJECT__19
10
0
20
0
30
0
70
128
71
215
72
203
73
202
0
VERTEX
8
OBJECT__19
10
0
20
0
30
0
70
128
71
216
72
217
73
218
0
VERTEX
8
OBJECT__19
10
0
20
0
30
0
70
128
71
218
72
204
73
216
0
VERTEX
8
OBJECT__19
10
0
20
0
30
0
70
128
71
216
72
203
73
219
0
VERTEX
8
OBJECT__19
10
0
20
0
30
0
70
128
71
219
72
220
73
216
0
VERTEX
8
OBJECT__19
10
0
20
0
30
0
70
128
71
203
72
221
73
219
0
VERTEX
8
OBJECT__19
10
0
20
0
30
0
70
128
71
222
72
207
73
205
0
VERTEX
8
OBJECT__19
10
0
20
0
30
0
70
128
71
223
72
224
73
225
0
VERTEX
8
OBJECT__19
10
0
20
0
30
0
70
128
71
200
72
226
73
223
0
VERTEX
8
OBJECT__19
10
0
20
0
30
0
70
128
71
223
72
205
73
200
0
VERTEX
8
OBJECT__19
10
0
20
0
30
0
70
128
71
222
72
225
73
227
0
VERTEX
8
OBJECT__19
10
0
20
0
30
0
70
128
71
225
72
224
73
227
0
VERTEX
8
OBJECT__19
10
0
20
0
30
0
70
128
71
207
72
222
73
228
0
VERTEX
8
OBJECT__19
10
0
20
0
30
0
70
128
71
229
72
230
73
193
0
VERTEX
8
OBJECT__19
10
0
20
0
30
0
70
128
71
193
72
195
73
229
0
VERTEX
8
OBJECT__19
10
0
20
0
30
0
70
128
71
199
72
229
73
195
0
VERTEX
8
OBJECT__19
10
0
20
0
30
0
70
128
71
198
72
207
73
231
0
VERTEX
8
OBJECT__19
10
0
20
0
30
0
70
128
71
231
72
232
73
229
0
VERTEX
8
OBJECT__19
10
0
20
0
30
0
70
128
71
233
72
197
73
196
0
VERTEX
8
OBJECT__19
10
0
20
0
30
0
70
128
71
234
72
196
73
193
0
VERTEX
8
OBJECT__19
10
0
20
0
30
0
70
128
71
1
72
79
73
197
0
VERTEX
8
OBJECT__19
10
0
20
0
30
0
70
128
71
230
72
235
73
236
0
VERTEX
8
OBJECT__19
10
0
20
0
30
0
70
128
71
230
72
237
73
235
0
VERTEX
8
OBJECT__19
10
0
20
0
30
0
70
128
71
232
72
238
73
239
0
VERTEX
8
OBJECT__19
10
0
20
0
30
0
70
128
71
239
72
230
73
232
0
VERTEX
8
OBJECT__19
10
0
20
0
30
0
70
128
71
239
72
237
73
230
0
VERTEX
8
OBJECT__19
10
0
20
0
30
0
70
128
71
238
72
232
73
240
0
VERTEX
8
OBJECT__19
10
0
20
0
30
0
70
128
71
240
72
241
73
238
0
VERTEX
8
OBJECT__19
10
0
20
0
30
0
70
128
71
228
72
240
73
232
0
VERTEX
8
OBJECT__19
10
0
20
0
30
0
70
128
71
242
72
243
73
228
0
VERTEX
8
OBJECT__19
10
0
20
0
30
0
70
128
71
240
72
228
73
244
0
VERTEX
8
OBJECT__19
10
0
20
0
30
0
70
128
71
244
72
245
73
240
0
VERTEX
8
OBJECT__19
10
0
20
0
30
0
70
128
71
228
72
243
73
246
0
VERTEX
8
OBJECT__19
10
0
20
0
30
0
70
128
71
246
72
244
73
228
0
VERTEX
8
OBJECT__19
10
0
20
0
30
0
70
128
71
233
72
234
73
247
0
VERTEX
8
OBJECT__19
10
0
20
0
30
0
70
128
71
247
72
248
73
233
0
VERTEX
8
OBJECT__19
10
0
20
0
30
0
70
128
71
234
72
249
73
250
0
VERTEX
8
OBJECT__19
10
0
20
0
30
0
70
128
71
250
72
247
73
234
0
VERTEX
8
OBJECT__19
10
0
20
0
30
0
70
128
71
234
72
230
73
251
0
VERTEX
8
OBJECT__19
10
0
20
0
30
0
70
128
71
251
72
252
73
234
0
VERTEX
8
OBJECT__19
10
0
20
0
30
0
70
128
71
230
72
253
73
254
0
VERTEX
8
OBJECT__19
10
0
20
0
30
0
70
128
71
254
72
251
73
230
0
VERTEX
8
OBJECT__19
10
0
20
0
30
0
70
128
71
1
72
233
73
255
0
VERTEX
8
OBJECT__19
10
0
20
0
30
0
70
128
71
255
72
256
73
1
0
VERTEX
8
OBJECT__19
10
0
20
0
30
0
70
128
71
233
72
257
73
255
0
VERTEX
8
OBJECT__19
10
0
20
0
30
0
70
128
71
233
72
258
73
257
0
VERTEX
8
OBJECT__19
10
0
20
0
30
0
70
128
71
256
72
259
73
1
0
VERTEX
8
OBJECT__19
10
0
20
0
30
0
70
128
71
260
72
55
73
261
0
VERTEX
8
OBJECT__19
10
0
20
0
30
0
70
128
71
55
72
262
73
261
0
VERTEX
8
OBJECT__19
10
0
20
0
30
0
70
128
71
260
72
263
73
56
0
VERTEX
8
OBJECT__19
10
0
20
0
30
0
70
128
71
264
72
265
73
118
0
VERTEX
8
OBJECT__19
10
0
20
0
30
0
70
128
71
56
72
263
73
264
0
VERTEX
8
OBJECT__19
10
0
20
0
30
0
70
128
71
118
72
265
73
266
0
VERTEX
8
OBJECT__19
10
0
20
0
30
0
70
128
71
266
72
267
73
118
0
VERTEX
8
OBJECT__19
10
0
20
0
30
0
70
128
71
265
72
268
73
269
0
VERTEX
8
OBJECT__19
10
0
20
0
30
0
70
128
71
269
72
266
73
265
0
VERTEX
8
OBJECT__19
10
0
20
0
30
0
70
128
71
270
72
139
73
271
0
VERTEX
8
OBJECT__19
10
0
20
0
30
0
70
128
71
139
72
272
73
271
0
VERTEX
8
OBJECT__19
10
0
20
0
30
0
70
128
71
271
72
273
73
270
0
VERTEX
8
OBJECT__19
10
0
20
0
30
0
70
128
71
274
72
163
73
139
0
VERTEX
8
OBJECT__19
10
0
20
0
30
0
70
128
71
139
72
270
73
274
0
VERTEX
8
OBJECT__19
10
0
20
0
30
0
70
128
71
275
72
201
73
163
0
VERTEX
8
OBJECT__19
10
0
20
0
30
0
70
128
71
213
72
201
73
275
0
VERTEX
8
OBJECT__19
10
0
20
0
30
0
70
128
71
275
72
276
73
213
0
VERTEX
8
OBJECT__19
10
0
20
0
30
0
70
128
71
163
72
277
73
275
0
VERTEX
8
OBJECT__19
10
0
20
0
30
0
70
128
71
274
72
277
73
163
0
VERTEX
8
OBJECT__19
10
0
20
0
30
0
70
128
71
273
72
278
73
270
0
VERTEX
8
OBJECT__19
10
0
20
0
30
0
70
128
71
267
72
119
73
118
0
VERTEX
8
OBJECT__19
10
0
20
0
30
0
70
128
71
118
72
56
73
264
0
VERTEX
8
OBJECT__19
10
0
20
0
30
0
70
128
71
56
72
55
73
260
0
VERTEX
8
OBJECT__19
10
0
20
0
30
0
70
128
71
261
72
279
73
260
0
VERTEX
8
OBJECT__19
10
0
20
0
30
0
70
128
71
259
72
16
73
1
0
VERTEX
8
OBJECT__19
10
0
20
0
30
0
70
128
71
252
72
249
73
234
0
VERTEX
8
OBJECT__19
10
0
20
0
30
0
70
128
71
248
72
258
73
233
0
VERTEX
8
OBJECT__19
10
0
20
0
30
0
70
128
71
245
72
241
73
240
0
VERTEX
8
OBJECT__19
10
0
20
0
30
0
70
128
71
228
72
222
73
242
0
VERTEX
8
OBJECT__19
10
0
20
0
30
0
70
128
71
232
72
231
73
228
0
VERTEX
8
OBJECT__19
10
0
20
0
30
0
70
128
71
236
72
253
73
230
0
VERTEX
8
OBJECT__19
10
0
20
0
30
0
70
128
71
197
72
233
73
1
0
VERTEX
8
OBJECT__19
10
0
20
0
30
0
70
128
71
193
72
230
73
234
0
VERTEX
8
OBJECT__19
10
0
20
0
30
0
70
128
71
196
72
234
73
233
0
VERTEX
8
OBJECT__19
10
0
20
0
30
0
70
128
71
229
72
199
73
231
0
VERTEX
8
OBJECT__19
10
0
20
0
30
0
70
128
71
231
72
199
73
198
0
VERTEX
8
OBJECT__19
10
0
20
0
30
0
70
128
71
195
72
194
73
199
0
VERTEX
8
OBJECT__19
10
0
20
0
30
0
70
128
71
229
72
232
73
230
0
VERTEX
8
OBJECT__19
10
0
20
0
30
0
70
128
71
228
72
231
73
207
0
VERTEX
8
OBJECT__19
10
0
20
0
30
0
70
128
71
227
72
242
73
222
0
VERTEX
8
OBJECT__19
10
0
20
0
30
0
70
128
71
225
72
205
73
223
0
VERTEX
8
OBJECT__19
10
0
20
0
30
0
70
128
71
205
72
225
73
222
0
VERTEX
8
OBJECT__19
10
0
20
0
30
0
70
128
71
220
72
217
73
216
0
VERTEX
8
OBJECT__19
10
0
20
0
30
0
70
128
71
218
72
210
73
204
0
VERTEX
8
OBJECT__19
10
0
20
0
30
0
70
128
71
215
72
221
73
203
0
VERTEX
8
OBJECT__19
10
0
20
0
30
0
70
128
71
212
72
214
73
202
0
VERTEX
8
OBJECT__19
10
0
20
0
30
0
70
128
71
209
72
226
73
200
0
VERTEX
8
OBJECT__19
10
0
20
0
30
0
70
128
71
206
72
205
73
207
0
VERTEX
8
OBJECT__19
10
0
20
0
30
0
70
128
71
206
72
168
73
161
0
VERTEX
8
OBJECT__19
10
0
20
0
30
0
70
128
71
168
72
206
73
198
0
VERTEX
8
OBJECT__19
10
0
20
0
30
0
70
128
71
164
72
216
73
204
0
VERTEX
8
OBJECT__19
10
0
20
0
30
0
70
128
71
203
72
216
73
164
0
VERTEX
8
OBJECT__19
10
0
20
0
30
0
70
128
71
162
72
163
73
201
0
VERTEX
8
OBJECT__19
10
0
20
0
30
0
70
128
71
165
72
204
73
200
0
VERTEX
8
OBJECT__19
10
0
20
0
30
0
70
128
71
199
72
194
73
169
0
VERTEX
8
OBJECT__19
10
0
20
0
30
0
70
128
71
182
72
197
73
79
0
VERTEX
8
OBJECT__19
10
0
20
0
30
0
70
128
71
172
72
193
73
196
0
VERTEX
8
OBJECT__19
10
0
20
0
30
0
70
128
71
182
72
185
73
196
0
VERTEX
8
OBJECT__19
10
0
20
0
30
0
70
128
71
192
72
170
73
194
0
VERTEX
8
OBJECT__19
10
0
20
0
30
0
70
128
71
181
72
177
73
170
0
VERTEX
8
OBJECT__19
10
0
20
0
30
0
70
128
71
194
72
170
73
167
0
VERTEX
8
OBJECT__19
10
0
20
0
30
0
70
128
71
192
72
195
73
193
0
VERTEX
8
OBJECT__19
10
0
20
0
30
0
70
128
71
190
72
183
73
182
0
VERTEX
8
OBJECT__19
10
0
20
0
30
0
70
128
71
189
72
175
73
172
0
VERTEX
8
OBJECT__19
10
0
20
0
30
0
70
128
71
184
72
187
73
185
0
VERTEX
8
OBJECT__19
10
0
20
0
30
0
70
128
71
171
72
129
73
177
0
VERTEX
8
OBJECT__19
10
0
20
0
30
0
70
128
71
180
72
131
73
129
0
VERTEX
8
OBJECT__19
10
0
20
0
30
0
70
128
71
177
72
129
73
128
0
VERTEX
8
OBJECT__19
10
0
20
0
30
0
70
128
71
171
72
181
73
172
0
VERTEX
8
OBJECT__19
10
0
20
0
30
0
70
128
71
170
72
177
73
160
0
VERTEX
8
OBJECT__19
10
0
20
0
30
0
70
128
71
166
72
168
73
169
0
VERTEX
8
OBJECT__19
10
0
20
0
30
0
70
128
71
166
72
159
73
132
0
VERTEX
8
OBJECT__19
10
0
20
0
30
0
70
128
71
167
72
160
73
159
0
VERTEX
8
OBJECT__19
10
0
20
0
30
0
70
128
71
144
72
164
73
165
0
VERTEX
8
OBJECT__19
10
0
20
0
30
0
70
128
71
143
72
162
73
164
0
VERTEX
8
OBJECT__19
10
0
20
0
30
0
70
128
71
140
72
139
73
163
0
VERTEX
8
OBJECT__19
10
0
20
0
30
0
70
128
71
135
72
165
73
161
0
VERTEX
8
OBJECT__19
10
0
20
0
30
0
70
128
71
160
72
128
73
154
0
VERTEX
8
OBJECT__19
10
0
20
0
30
0
70
128
71
158
72
136
73
154
0
VERTEX
8
OBJECT__19
10
0
20
0
30
0
70
128
71
153
72
157
73
154
0
VERTEX
8
OBJECT__19
10
0
20
0
30
0
70
128
71
151
72
146
73
144
0
VERTEX
8
OBJECT__19
10
0
20
0
30
0
70
128
71
149
72
142
73
140
0
VERTEX
8
OBJECT__19
10
0
20
0
30
0
70
128
71
145
72
148
73
143
0
VERTEX
8
OBJECT__19
10
0
20
0
30
0
70
128
71
141
72
272
73
139
0
VERTEX
8
OBJECT__19
10
0
20
0
30
0
70
128
71
138
72
150
73
135
0
VERTEX
8
OBJECT__19
10
0
20
0
30
0
70
128
71
130
72
155
73
128
0
VERTEX
8
OBJECT__19
10
0
20
0
30
0
70
128
71
121
72
108
73
51
0
VERTEX
8
OBJECT__19
10
0
20
0
30
0
70
128
71
121
72
57
73
56
0
VERTEX
8
OBJECT__19
10
0
20
0
30
0
70
128
71
107
72
111
73
53
0
VERTEX
8
OBJECT__19
10
0
20
0
30
0
70
128
71
127
72
105
73
26
0
VERTEX
8
OBJECT__19
10
0
20
0
30
0
70
128
71
127
72
12
73
53
0
VERTEX
8
OBJECT__19
10
0
20
0
30
0
70
128
71
108
72
107
73
54
0
VERTEX
8
OBJECT__19
10
0
20
0
30
0
70
128
71
124
72
109
73
108
0
VERTEX
8
OBJECT__19
10
0
20
0
30
0
70
128
71
122
72
126
73
121
0
VERTEX
8
OBJECT__19
10
0
20
0
30
0
70
128
71
116
72
113
73
111
0
VERTEX
8
OBJECT__19
10
0
20
0
30
0
70
128
71
104
72
106
73
73
0
VERTEX
8
OBJECT__19
10
0
20
0
30
0
70
128
71
73
72
106
73
110
0
VERTEX
8
OBJECT__19
10
0
20
0
30
0
70
128
71
109
72
117
73
107
0
VERTEX
8
OBJECT__19
10
0
20
0
30
0
70
128
71
105
72
127
73
106
0
VERTEX
8
OBJECT__19
10
0
20
0
30
0
70
128
71
18
72
26
73
105
0
VERTEX
8
OBJECT__19
10
0
20
0
30
0
70
128
71
102
72
105
73
104
0
VERTEX
8
OBJECT__19
10
0
20
0
30
0
70
128
71
103
72
19
73
18
0
VERTEX
8
OBJECT__19
10
0
20
0
30
0
70
128
71
87
72
22
73
103
0
VERTEX
8
OBJECT__19
10
0
20
0
30
0
70
128
71
7
72
3
73
23
0
VERTEX
8
OBJECT__19
10
0
20
0
30
0
70
128
71
87
72
86
73
23
0
VERTEX
8
OBJECT__19
10
0
20
0
30
0
70
128
71
95
72
103
73
102
0
VERTEX
8
OBJECT__19
10
0
20
0
30
0
70
128
71
99
72
104
73
78
0
VERTEX
8
OBJECT__19
10
0
20
0
30
0
70
128
71
101
72
84
73
81
0
VERTEX
8
OBJECT__19
10
0
20
0
30
0
70
128
71
80
72
95
73
99
0
VERTEX
8
OBJECT__19
10
0
20
0
30
0
70
128
71
97
72
91
73
87
0
VERTEX
8
OBJECT__19
10
0
20
0
30
0
70
128
71
93
72
9
73
7
0
VERTEX
8
OBJECT__19
10
0
20
0
30
0
70
128
71
90
72
94
73
86
0
VERTEX
8
OBJECT__19
10
0
20
0
30
0
70
128
71
85
72
98
73
80
0
VERTEX
8
OBJECT__19
10
0
20
0
30
0
70
128
71
7
72
4
73
79
0
VERTEX
8
OBJECT__19
10
0
20
0
30
0
70
128
71
75
72
100
73
78
0
VERTEX
8
OBJECT__19
10
0
20
0
30
0
70
128
71
71
72
69
73
58
0
VERTEX
8
OBJECT__19
10
0
20
0
30
0
70
128
71
70
72
262
73
55
0
VERTEX
8
OBJECT__19
10
0
20
0
30
0
70
128
71
67
72
61
73
49
0
VERTEX
8
OBJECT__19
10
0
20
0
30
0
70
128
71
63
72
280
73
47
0
VERTEX
8
OBJECT__19
10
0
20
0
30
0
70
128
71
47
72
280
73
62
0
VERTEX
8
OBJECT__19
10
0
20
0
30
0
70
128
71
60
72
72
73
50
0
VERTEX
8
OBJECT__19
10
0
20
0
30
0
70
128
71
57
72
51
73
50
0
VERTEX
8
OBJECT__19
10
0
20
0
30
0
70
128
71
57
72
58
73
55
0
VERTEX
8
OBJECT__19
10
0
20
0
30
0
70
128
71
54
72
53
73
52
0
VERTEX
8
OBJECT__19
10
0
20
0
30
0
70
128
71
11
72
10
73
42
0
VERTEX
8
OBJECT__19
10
0
20
0
30
0
70
128
71
11
72
48
73
52
0
VERTEX
8
OBJECT__19
10
0
20
0
30
0
70
128
71
51
72
54
73
49
0
VERTEX
8
OBJECT__19
10
0
20
0
30
0
70
128
71
48
72
42
73
45
0
VERTEX
8
OBJECT__19
10
0
20
0
30
0
70
128
71
46
72
64
73
45
0
VERTEX
8
OBJECT__19
10
0
20
0
30
0
70
128
71
44
72
46
73
28
0
VERTEX
8
OBJECT__19
10
0
20
0
30
0
70
128
71
28
72
45
73
42
0
VERTEX
8
OBJECT__19
10
0
20
0
30
0
70
128
71
38
72
25
73
36
0
VERTEX
8
OBJECT__19
10
0
20
0
30
0
70
128
71
33
72
31
73
20
0
VERTEX
8
OBJECT__19
10
0
20
0
30
0
70
128
71
30
72
41
73
21
0
VERTEX
8
OBJECT__19
10
0
20
0
30
0
70
128
71
25
72
38
73
28
0
VERTEX
8
OBJECT__19
10
0
20
0
30
0
70
128
71
27
72
42
73
10
0
VERTEX
8
OBJECT__19
10
0
20
0
30
0
70
128
71
24
72
25
73
27
0
VERTEX
8
OBJECT__19
10
0
20
0
30
0
70
128
71
17
72
10
73
26
0
VERTEX
8
OBJECT__19
10
0
20
0
30
0
70
128
71
22
72
21
73
24
0
VERTEX
8
OBJECT__19
10
0
20
0
30
0
70
128
71
23
72
3
73
2
0
VERTEX
8
OBJECT__19
10
0
20
0
30
0
70
128
71
22
72
23
73
20
0
VERTEX
8
OBJECT__19
10
0
20
0
30
0
70
128
71
19
72
24
73
17
0
VERTEX
8
OBJECT__19
10
0
20
0
30
0
70
128
71
14
72
34
73
2
0
VERTEX
8
OBJECT__19
10
0
20
0
30
0
70
128
71
12
72
26
73
10
0
VERTEX
8
OBJECT__19
10
0
20
0
30
0
70
128
71
6
72
191
73
4
0
VERTEX
8
OBJECT__19
10
0
20
0
30
0
70
128
71
3
72
79
73
1
0
SEQEND
8
OBJECT__19
0
POLYLINE
8
OBJECT__20
66
1
70
64
71
151
72
197
62
253
0
VERTEX
8
OBJECT__20
10
67.408997
20
-6.808000
30
-41.539001
70
192
0
VERTEX
8
OBJECT__20
10
64.280998
20
-6.795000
30
-39.499001
70
192
0
VERTEX
8
OBJECT__20
10
65.452003
20
-0.011000
30
-40.429001
70
192
0
VERTEX
8
OBJECT__20
10
62.394001
20
-13.180000
30
-37.015999
70
192
0
VERTEX
8
OBJECT__20
10
65.049004
20
-13.085000
30
-39.367001
70
192
0
VERTEX
8
OBJECT__20
10
62.792000
20
-18.867001
30
-35.958000
70
192
0
VERTEX
8
OBJECT__20
10
59.610001
20
-0.011000
30
-39.448002
70
192
0
VERTEX
8
OBJECT__20
10
59.124001
20
-6.842000
30
-38.528000
70
192
0
VERTEX
8
OBJECT__20
10
52.824001
20
-13.509000
30
-35.514999
70
192
0
VERTEX
8
OBJECT__20
10
58.362999
20
-13.328000
30
-35.898998
70
192
0
VERTEX
8
OBJECT__20
10
58.069000
20
-19.174000
30
-31.671000
70
192
0
VERTEX
8
OBJECT__20
10
61.123001
20
-18.989000
30
-33.215000
70
192
0
VERTEX
8
OBJECT__20
10
69.801003
20
-0.011000
30
-47.173000
70
192
0
VERTEX
8
OBJECT__20
10
71.500000
20
-0.011000
30
-61.327000
70
192
0
VERTEX
8
OBJECT__20
10
71.193001
20
-6.854000
30
-60.249001
70
192
0
VERTEX
8
OBJECT__20
10
74.068001
20
-0.011000
30
-84.570999
70
192
0
VERTEX
8
OBJECT__20
10
73.600998
20
-6.853000
30
-83.455002
70
192
0
VERTEX
8
OBJECT__20
10
73.987999
20
-0.011000
30
-97.948997
70
192
0
VERTEX
8
OBJECT__20
10
73.441002
20
-6.765000
30
-96.745003
70
192
0
VERTEX
8
OBJECT__20
10
71.661003
20
-13.095000
30
-92.886002
70
192
0
VERTEX
8
OBJECT__20
10
71.791000
20
-13.094000
30
-79.787003
70
192
0
VERTEX
8
OBJECT__20
10
69.262001
20
-6.823000
30
-46.501999
70
192
0
VERTEX
8
OBJECT__20
10
68.540001
20
-0.011000
30
-42.394001
70
192
0
VERTEX
8
OBJECT__20
10
69.474998
20
-13.079000
30
-57.796001
70
192
0
VERTEX
8
OBJECT__20
10
67.205002
20
-13.053000
30
-44.924000
70
192
0
VERTEX
8
OBJECT__20
10
63.624001
20
-18.837999
30
-41.598999
70
192
0
VERTEX
8
OBJECT__20
10
63.634998
20
18.820999
30
-41.616001
70
192
0
VERTEX
8
OBJECT__20
10
67.217003
20
13.034000
30
-44.931999
70
192
0
VERTEX
8
OBJECT__20
10
65.057999
20
13.067000
30
-39.376999
70
192
0
VERTEX
8
OBJECT__20
10
69.266998
20
6.801000
30
-46.507000
70
192
0
VERTEX
8
OBJECT__20
10
69.487000
20
13.061000
30
-57.807999
70
192
0
VERTEX
8
OBJECT__20
10
71.195999
20
6.832000
30
-60.256001
70
192
0
VERTEX
8
OBJECT__20
10
71.802002
20
13.077000
30
-79.806000
70
192
0
VERTEX
8
OBJECT__20
10
73.605003
20
6.832000
30
-83.462997
70
192
0
VERTEX
8
OBJECT__20
10
71.669998
20
13.077000
30
-92.905998
70
192
0
VERTEX
8
OBJECT__20
10
73.445000
20
6.744000
30
-96.752998
70
192
0
VERTEX
8
OBJECT__20
10
67.417000
20
6.786000
30
-41.544998
70
192
0
VERTEX
8
OBJECT__20
10
64.288002
20
6.774000
30
-39.506001
70
192
0
VERTEX
8
OBJECT__20
10
62.400002
20
13.161000
30
-37.027000
70
192
0
VERTEX
8
OBJECT__20
10
61.126999
20
18.971001
30
-33.230999
70
192
0
VERTEX
8
OBJECT__20
10
62.799000
20
18.850000
30
-35.973000
70
192
0
VERTEX
8
OBJECT__20
10
58.365002
20
13.309000
30
-35.911999
70
192
0
VERTEX
8
OBJECT__20
10
58.069000
20
19.153000
30
-31.688000
70
192
0
VERTEX
8
OBJECT__20
10
59.126999
20
6.820000
30
-38.535000
70
192
0
VERTEX
8
OBJECT__20
10
52.823002
20
13.489000
30
-35.528999
70
192
0
VERTEX
8
OBJECT__20
10
53.241001
20
19.417999
30
-30.870001
70
192
0
VERTEX
8
OBJECT__20
10
57.491001
20
23.788000
30
-25.632999
70
192
0
VERTEX
8
OBJECT__20
10
58.171001
20
23.497999
30
-26.516001
70
192
0
VERTEX
8
OBJECT__20
10
53.919998
20
24.201000
30
-24.629999
70
192
0
VERTEX
8
OBJECT__20
10
55.827999
20
24.118999
30
-24.680000
70
192
0
VERTEX
8
OBJECT__20
10
60.344002
20
22.177999
30
-30.052999
70
192
0
VERTEX
8
OBJECT__20
10
60.577000
20
21.992001
30
-30.511999
70
192
0
VERTEX
8
OBJECT__20
10
58.358002
20
23.417999
30
-26.759001
70
192
0
VERTEX
8
OBJECT__20
10
59.278999
20
23.025000
30
-27.954000
70
192
0
VERTEX
8
OBJECT__20
10
61.340000
20
21.386000
30
-32.013000
70
192
0
VERTEX
8
OBJECT__20
10
62.216999
20
20.570000
30
-34.681000
70
192
0
VERTEX
8
OBJECT__20
10
63.178001
20
19.649000
30
-40.049999
70
192
0
VERTEX
8
OBJECT__20
10
63.703999
20
19.311001
30
-43.372002
70
192
0
VERTEX
8
OBJECT__20
10
62.520000
20
20.285000
30
-35.881001
70
192
0
VERTEX
8
OBJECT__20
10
62.436001
20
20.367001
30
-35.345001
70
192
0
VERTEX
8
OBJECT__20
10
64.526001
20
18.782000
30
-48.562000
70
192
0
VERTEX
8
OBJECT__20
10
65.309998
20
18.278999
30
-53.514000
70
192
0
VERTEX
8
OBJECT__20
10
68.420998
20
17.033001
30
-74.955002
70
192
0
VERTEX
8
OBJECT__20
10
68.434998
20
17.031000
30
-75.107002
70
192
0
VERTEX
8
OBJECT__20
10
69.772003
20
15.681000
30
-76.945999
70
192
0
VERTEX
8
OBJECT__20
10
68.315002
20
17.042000
30
-73.886002
70
192
0
VERTEX
8
OBJECT__20
10
66.166000
20
17.797001
30
-59.060001
70
192
0
VERTEX
8
OBJECT__20
10
65.931000
20
17.879000
30
-57.438000
70
192
0
VERTEX
8
OBJECT__20
10
69.723000
20
17.038000
30
-90.216003
70
192
0
VERTEX
8
OBJECT__20
10
70.150002
20
16.547001
30
-94.292999
70
192
0
VERTEX
8
OBJECT__20
10
69.308998
20
16.955999
30
-83.988998
70
192
0
VERTEX
8
OBJECT__20
10
69.705002
20
17.059000
30
-90.040001
70
192
0
VERTEX
8
OBJECT__20
10
70.514000
20
15.574000
30
-96.932999
70
192
0
VERTEX
8
OBJECT__20
10
70.621002
20
15.286000
30
-97.713997
70
192
0
VERTEX
8
OBJECT__20
10
71.091003
20
13.077000
30
-100.778999
70
192
0
VERTEX
8
OBJECT__20
10
70.452003
20
15.740000
30
-96.482002
70
192
0
VERTEX
8
OBJECT__20
10
71.223000
20
11.933000
30
-101.727997
70
192
0
VERTEX
8
OBJECT__20
10
71.483002
20
9.693000
30
-103.587997
70
192
0
VERTEX
8
OBJECT__20
10
71.108002
20
12.927000
30
-100.903999
70
192
0
VERTEX
8
OBJECT__20
10
71.709999
20
6.350000
30
-105.364998
70
192
0
VERTEX
8
OBJECT__20
10
71.848999
20
2.388000
30
-106.344002
70
192
0
VERTEX
8
OBJECT__20
10
71.851997
20
0.007000
30
-106.365997
70
192
0
VERTEX
8
OBJECT__20
10
71.702003
20
-6.402000
30
-105.297997
70
192
0
VERTEX
8
OBJECT__20
10
71.689003
20
-6.595000
30
-105.202003
70
192
0
VERTEX
8
OBJECT__20
10
71.855003
20
-2.018000
30
-106.385002
70
192
0
VERTEX
8
OBJECT__20
10
71.726997
20
-6.007000
30
-105.494003
70
192
0
VERTEX
8
OBJECT__20
10
71.851997
20
-0.012000
30
-106.366997
70
192
0
VERTEX
8
OBJECT__20
10
71.167999
20
-12.563000
30
-101.290001
70
192
0
VERTEX
8
OBJECT__20
10
71.098000
20
-12.928000
30
-100.835999
70
192
0
VERTEX
8
OBJECT__20
10
71.232002
20
-11.949000
30
-101.766998
70
192
0
VERTEX
8
OBJECT__20
10
71.526001
20
-9.176000
30
-103.919998
70
192
0
VERTEX
8
OBJECT__20
10
70.514999
20
-15.530000
30
-96.922997
70
192
0
VERTEX
8
OBJECT__20
10
70.223999
20
-16.395000
30
-94.875000
70
192
0
VERTEX
8
OBJECT__20
10
69.757004
20
-17.032000
30
-90.648003
70
192
0
VERTEX
8
OBJECT__20
10
70.718002
20
-14.926000
30
-98.352997
70
192
0
VERTEX
8
OBJECT__20
10
69.727997
20
-17.028000
30
-90.232002
70
192
0
VERTEX
8
OBJECT__20
10
69.570999
20
-17.000999
30
-87.984001
70
192
0
VERTEX
8
OBJECT__20
10
69.011002
20
-16.906000
30
-79.964996
70
192
0
VERTEX
8
OBJECT__20
10
67.530998
20
-17.282000
30
-68.519997
70
192
0
VERTEX
8
OBJECT__20
10
66.130997
20
-17.892000
30
-59.085999
70
192
0
VERTEX
8
OBJECT__20
10
68.365997
20
-17.070000
30
-74.980003
70
192
0
VERTEX
8
OBJECT__20
10
68.380997
20
-17.066000
30
-75.093002
70
192
0
VERTEX
8
OBJECT__20
10
64.931999
20
-18.415001
30
-50.997002
70
192
0
VERTEX
8
OBJECT__20
10
64.400002
20
-18.795000
30
-47.602001
70
192
0
VERTEX
8
OBJECT__20
10
65.306000
20
-18.252001
30
-53.525002
70
192
0
VERTEX
8
OBJECT__20
10
63.737999
20
-19.267000
30
-43.379002
70
192
0
VERTEX
8
OBJECT__20
10
62.903999
20
-19.863001
30
-38.049999
70
192
0
VERTEX
8
OBJECT__20
10
62.484001
20
-20.316000
30
-35.910000
70
192
0
VERTEX
8
OBJECT__20
10
63.377998
20
-19.525000
30
-41.076000
70
192
0
VERTEX
8
OBJECT__20
10
62.237999
20
-20.582001
30
-34.653999
70
192
0
VERTEX
8
OBJECT__20
10
62.146999
20
-20.681000
30
-34.189999
70
192
0
VERTEX
8
OBJECT__20
10
60.584000
20
-22.118999
30
-30.400000
70
192
0
VERTEX
8
OBJECT__20
10
60.445000
20
-22.246000
30
-30.063999
70
192
0
VERTEX
8
OBJECT__20
10
58.443001
20
-23.445000
30
-26.740000
70
192
0
VERTEX
8
OBJECT__20
10
53.242001
20
-19.445999
30
-30.855000
70
192
0
VERTEX
8
OBJECT__20
10
55.837002
20
-24.136999
30
-24.763000
70
192
0
VERTEX
8
OBJECT__20
10
54.993999
20
-24.226000
30
-24.542000
70
192
0
VERTEX
8
OBJECT__20
10
58.189999
20
-23.596001
30
-26.319000
70
192
0
VERTEX
8
OBJECT__20
10
56.646999
20
-24.052000
30
-24.976000
70
192
0
VERTEX
8
OBJECT__20
10
58.223000
20
-23.576000
30
-26.375000
70
192
0
VERTEX
8
OBJECT__20
10
36.723000
20
-25.025000
30
-24.565001
70
192
0
VERTEX
8
OBJECT__20
10
34.533001
20
-25.118000
30
-24.580999
70
192
0
VERTEX
8
OBJECT__20
10
34.465000
20
-21.479000
30
-28.997000
70
192
0
VERTEX
8
OBJECT__20
10
34.465000
20
-20.052000
30
-30.329000
70
192
0
VERTEX
8
OBJECT__20
10
48.522999
20
-24.444000
30
-24.584999
70
192
0
VERTEX
8
OBJECT__20
10
53.930000
20
-24.261999
30
-24.549000
70
192
0
VERTEX
8
OBJECT__20
10
49.033001
20
-24.427000
30
-24.580999
70
192
0
VERTEX
8
OBJECT__20
10
34.465000
20
-17.476000
30
-32.733002
70
192
0
VERTEX
8
OBJECT__20
10
34.465000
20
-14.687000
30
-34.730999
70
192
0
VERTEX
8
OBJECT__20
10
34.465000
20
-10.273000
30
-37.047001
70
192
0
VERTEX
8
OBJECT__20
10
34.465000
20
-13.877000
30
-35.155998
70
192
0
VERTEX
8
OBJECT__20
10
34.465000
20
-6.213000
30
-38.375000
70
192
0
VERTEX
8
OBJECT__20
10
34.465000
20
-1.373000
30
-39.082001
70
192
0
VERTEX
8
OBJECT__20
10
34.465000
20
-7.088000
30
-38.089001
70
192
0
VERTEX
8
OBJECT__20
10
34.465000
20
3.016000
30
-38.945000
70
192
0
VERTEX
8
OBJECT__20
10
34.465000
20
-0.014000
30
-39.039001
70
192
0
VERTEX
8
OBJECT__20
10
34.465000
20
11.537000
30
-36.484001
70
192
0
VERTEX
8
OBJECT__20
10
34.465000
20
13.828000
30
-35.127998
70
192
0
VERTEX
8
OBJECT__20
10
34.465000
20
7.829000
30
-37.931999
70
192
0
VERTEX
8
OBJECT__20
10
34.465000
20
7.071000
30
-38.091999
70
192
0
VERTEX
8
OBJECT__20
10
34.465000
20
16.042000
30
-33.819000
70
192
0
VERTEX
8
OBJECT__20
10
34.465000
20
19.017000
30
-31.430000
70
192
0
VERTEX
8
OBJECT__20
10
49.044998
20
24.427999
30
-24.570000
70
192
0
VERTEX
8
OBJECT__20
10
51.902000
20
24.289000
30
-24.576000
70
192
0
VERTEX
8
OBJECT__20
10
52.258999
20
24.274000
30
-24.586000
70
192
0
VERTEX
8
OBJECT__20
10
34.465000
20
23.231001
30
-26.997999
70
192
0
VERTEX
8
OBJECT__20
10
34.465000
20
25.124001
30
-24.582001
70
192
0
VERTEX
8
OBJECT__20
10
35.105999
20
25.098000
30
-24.577000
70
192
0
VERTEX
8
OBJECT__20
10
45.917999
20
24.579000
30
-24.563000
70
192
0
VERTEX
8
OBJECT__20
10
34.465000
20
20.035000
30
-30.358999
70
192
0
VERTEX
8
OBJECT__20
10
34.465000
20
-25.122000
30
-24.580000
70
192
0
VERTEX
8
OBJECT__20
10
0
20
0
30
0
70
128
71
1
72
2
73
3
0
VERTEX
8
OBJECT__20
10
0
20
0
30
0
70
128
71
4
72
5
73
6
0
VERTEX
8
OBJECT__20
10
0
20
0
30
0
70
128
71
2
72
1
73
5
0
VERTEX
8
OBJECT__20
10
0
20
0
30
0
70
128
71
7
72
3
73
2
0
VERTEX
8
OBJECT__20
10
0
20
0
30
0
70
128
71
8
72
2
73
4
0
VERTEX
8
OBJECT__20
10
0
20
0
30
0
70
128
71
9
72
10
73
11
0
VERTEX
8
OBJECT__20
10
0
20
0
30
0
70
128
71
10
72
4
73
12
0
VERTEX
8
OBJECT__20
10
0
20
0
30
0
70
128
71
13
72
14
73
15
0
VERTEX
8
OBJECT__20
10
0
20
0
30
0
70
128
71
14
72
16
73
17
0
VERTEX
8
OBJECT__20
10
0
20
0
30
0
70
128
71
16
72
18
73
19
0
VERTEX
8
OBJECT__20
10
0
20
0
30
0
70
128
71
17
72
19
73
20
0
VERTEX
8
OBJECT__20
10
0
20
0
30
0
70
128
71
15
72
17
73
21
0
VERTEX
8
OBJECT__20
10
0
20
0
30
0
70
128
71
22
72
1
73
23
0
VERTEX
8
OBJECT__20
10
0
20
0
30
0
70
128
71
22
72
15
73
24
0
VERTEX
8
OBJECT__20
10
0
20
0
30
0
70
128
71
25
72
5
73
1
0
VERTEX
8
OBJECT__20
10
0
20
0
30
0
70
128
71
26
72
6
73
5
0
VERTEX
8
OBJECT__20
10
0
20
0
30
0
70
128
71
27
72
28
73
29
0
VERTEX
8
OBJECT__20
10
0
20
0
30
0
70
128
71
30
72
28
73
31
0
VERTEX
8
OBJECT__20
10
0
20
0
30
0
70
128
71
32
72
31
73
33
0
VERTEX
8
OBJECT__20
10
0
20
0
30
0
70
128
71
34
72
33
73
35
0
VERTEX
8
OBJECT__20
10
0
20
0
30
0
70
128
71
14
72
32
73
34
0
VERTEX
8
OBJECT__20
10
0
20
0
30
0
70
128
71
16
72
34
73
36
0
VERTEX
8
OBJECT__20
10
0
20
0
30
0
70
128
71
13
72
30
73
32
0
VERTEX
8
OBJECT__20
10
0
20
0
30
0
70
128
71
28
72
30
73
37
0
VERTEX
8
OBJECT__20
10
0
20
0
30
0
70
128
71
30
72
13
73
23
0
VERTEX
8
OBJECT__20
10
0
20
0
30
0
70
128
71
38
72
39
73
29
0
VERTEX
8
OBJECT__20
10
0
20
0
30
0
70
128
71
39
72
40
73
41
0
VERTEX
8
OBJECT__20
10
0
20
0
30
0
70
128
71
42
72
43
73
40
0
VERTEX
8
OBJECT__20
10
0
20
0
30
0
70
128
71
44
72
42
73
39
0
VERTEX
8
OBJECT__20
10
0
20
0
30
0
70
128
71
37
72
23
73
3
0
VERTEX
8
OBJECT__20
10
0
20
0
30
0
70
128
71
7
72
44
73
38
0
VERTEX
8
OBJECT__20
10
0
20
0
30
0
70
128
71
45
72
46
73
43
0
VERTEX
8
OBJECT__20
10
0
20
0
30
0
70
128
71
46
72
47
73
48
0
VERTEX
8
OBJECT__20
10
0
20
0
30
0
70
128
71
46
72
49
73
50
0
VERTEX
8
OBJECT__20
10
0
20
0
30
0
70
128
71
50
72
47
73
46
0
VERTEX
8
OBJECT__20
10
0
20
0
30
0
70
128
71
43
72
51
73
52
0
VERTEX
8
OBJECT__20
10
0
20
0
30
0
70
128
71
43
72
53
73
54
0
VERTEX
8
OBJECT__20
10
0
20
0
30
0
70
128
71
43
72
48
73
53
0
VERTEX
8
OBJECT__20
10
0
20
0
30
0
70
128
71
54
72
51
73
43
0
VERTEX
8
OBJECT__20
10
0
20
0
30
0
70
128
71
40
72
55
73
56
0
VERTEX
8
OBJECT__20
10
0
20
0
30
0
70
128
71
40
72
52
73
55
0
VERTEX
8
OBJECT__20
10
0
20
0
30
0
70
128
71
27
72
57
73
58
0
VERTEX
8
OBJECT__20
10
0
20
0
30
0
70
128
71
41
72
59
73
57
0
VERTEX
8
OBJECT__20
10
0
20
0
30
0
70
128
71
41
72
60
73
59
0
VERTEX
8
OBJECT__20
10
0
20
0
30
0
70
128
71
57
72
27
73
41
0
VERTEX
8
OBJECT__20
10
0
20
0
30
0
70
128
71
41
72
56
73
60
0
VERTEX
8
OBJECT__20
10
0
20
0
30
0
70
128
71
28
72
61
73
62
0
VERTEX
8
OBJECT__20
10
0
20
0
30
0
70
128
71
28
72
27
73
61
0
VERTEX
8
OBJECT__20
10
0
20
0
30
0
70
128
71
63
72
64
73
65
0
VERTEX
8
OBJECT__20
10
0
20
0
30
0
70
128
71
33
72
66
73
63
0
VERTEX
8
OBJECT__20
10
0
20
0
30
0
70
128
71
31
72
67
73
66
0
VERTEX
8
OBJECT__20
10
0
20
0
30
0
70
128
71
31
72
68
73
67
0
VERTEX
8
OBJECT__20
10
0
20
0
30
0
70
128
71
31
72
62
73
68
0
VERTEX
8
OBJECT__20
10
0
20
0
30
0
70
128
71
66
72
33
73
31
0
VERTEX
8
OBJECT__20
10
0
20
0
30
0
70
128
71
65
72
69
73
70
0
VERTEX
8
OBJECT__20
10
0
20
0
30
0
70
128
71
65
72
71
73
72
0
VERTEX
8
OBJECT__20
10
0
20
0
30
0
70
128
71
72
72
69
73
65
0
VERTEX
8
OBJECT__20
10
0
20
0
30
0
70
128
71
65
72
64
73
71
0
VERTEX
8
OBJECT__20
10
0
20
0
30
0
70
128
71
35
72
73
73
74
0
VERTEX
8
OBJECT__20
10
0
20
0
30
0
70
128
71
74
72
75
73
35
0
VERTEX
8
OBJECT__20
10
0
20
0
30
0
70
128
71
65
72
76
73
35
0
VERTEX
8
OBJECT__20
10
0
20
0
30
0
70
128
71
35
72
33
73
65
0
VERTEX
8
OBJECT__20
10
0
20
0
30
0
70
128
71
76
72
73
73
35
0
VERTEX
8
OBJECT__20
10
0
20
0
30
0
70
128
71
36
72
77
73
78
0
VERTEX
8
OBJECT__20
10
0
20
0
30
0
70
128
71
36
72
35
73
79
0
VERTEX
8
OBJECT__20
10
0
20
0
30
0
70
128
71
79
72
77
73
36
0
VERTEX
8
OBJECT__20
10
0
20
0
30
0
70
128
71
18
72
36
73
80
0
VERTEX
8
OBJECT__20
10
0
20
0
30
0
70
128
71
80
72
81
73
18
0
VERTEX
8
OBJECT__20
10
0
20
0
30
0
70
128
71
81
72
82
73
18
0
VERTEX
8
OBJECT__20
10
0
20
0
30
0
70
128
71
18
72
83
73
84
0
VERTEX
8
OBJECT__20
10
0
20
0
30
0
70
128
71
18
72
85
73
86
0
VERTEX
8
OBJECT__20
10
0
20
0
30
0
70
128
71
18
72
87
73
85
0
VERTEX
8
OBJECT__20
10
0
20
0
30
0
70
128
71
86
72
83
73
18
0
VERTEX
8
OBJECT__20
10
0
20
0
30
0
70
128
71
19
72
88
73
89
0
VERTEX
8
OBJECT__20
10
0
20
0
30
0
70
128
71
19
72
90
73
88
0
VERTEX
8
OBJECT__20
10
0
20
0
30
0
70
128
71
19
72
84
73
91
0
VERTEX
8
OBJECT__20
10
0
20
0
30
0
70
128
71
91
72
90
73
19
0
VERTEX
8
OBJECT__20
10
0
20
0
30
0
70
128
71
20
72
92
73
93
0
VERTEX
8
OBJECT__20
10
0
20
0
30
0
70
128
71
93
72
94
73
20
0
VERTEX
8
OBJECT__20
10
0
20
0
30
0
70
128
71
20
72
89
73
95
0
VERTEX
8
OBJECT__20
10
0
20
0
30
0
70
128
71
95
72
92
73
20
0
VERTEX
8
OBJECT__20
10
0
20
0
30
0
70
128
71
94
72
96
73
20
0
VERTEX
8
OBJECT__20
10
0
20
0
30
0
70
128
71
21
72
20
73
97
0
VERTEX
8
OBJECT__20
10
0
20
0
30
0
70
128
71
97
72
98
73
21
0
VERTEX
8
OBJECT__20
10
0
20
0
30
0
70
128
71
24
72
99
73
100
0
VERTEX
8
OBJECT__20
10
0
20
0
30
0
70
128
71
21
72
101
73
99
0
VERTEX
8
OBJECT__20
10
0
20
0
30
0
70
128
71
21
72
102
73
101
0
VERTEX
8
OBJECT__20
10
0
20
0
30
0
70
128
71
99
72
24
73
21
0
VERTEX
8
OBJECT__20
10
0
20
0
30
0
70
128
71
25
72
103
73
104
0
VERTEX
8
OBJECT__20
10
0
20
0
30
0
70
128
71
25
72
24
73
105
0
VERTEX
8
OBJECT__20
10
0
20
0
30
0
70
128
71
105
72
103
73
25
0
VERTEX
8
OBJECT__20
10
0
20
0
30
0
70
128
71
26
72
104
73
106
0
VERTEX
8
OBJECT__20
10
0
20
0
30
0
70
128
71
6
72
107
73
108
0
VERTEX
8
OBJECT__20
10
0
20
0
30
0
70
128
71
26
72
109
73
107
0
VERTEX
8
OBJECT__20
10
0
20
0
30
0
70
128
71
107
72
6
73
26
0
VERTEX
8
OBJECT__20
10
0
20
0
30
0
70
128
71
12
72
6
73
110
0
VERTEX
8
OBJECT__20
10
0
20
0
30
0
70
128
71
110
72
111
73
12
0
VERTEX
8
OBJECT__20
10
0
20
0
30
0
70
128
71
11
72
12
73
112
0
VERTEX
8
OBJECT__20
10
0
20
0
30
0
70
128
71
112
72
113
73
11
0
VERTEX
8
OBJECT__20
10
0
20
0
30
0
70
128
71
113
72
114
73
11
0
VERTEX
8
OBJECT__20
10
0
20
0
30
0
70
128
71
115
72
116
73
117
0
VERTEX
8
OBJECT__20
10
0
20
0
30
0
70
128
71
115
72
118
73
119
0
VERTEX
8
OBJECT__20
10
0
20
0
30
0
70
128
71
115
72
11
73
120
0
VERTEX
8
OBJECT__20
10
0
20
0
30
0
70
128
71
120
72
118
73
115
0
VERTEX
8
OBJECT__20
10
0
20
0
30
0
70
128
71
119
72
116
73
115
0
VERTEX
8
OBJECT__20
10
0
20
0
30
0
70
128
71
121
72
122
73
123
0
VERTEX
8
OBJECT__20
10
0
20
0
30
0
70
128
71
124
72
115
73
125
0
VERTEX
8
OBJECT__20
10
0
20
0
30
0
70
128
71
125
72
121
73
124
0
VERTEX
8
OBJECT__20
10
0
20
0
30
0
70
128
71
115
72
126
73
127
0
VERTEX
8
OBJECT__20
10
0
20
0
30
0
70
128
71
127
72
125
73
115
0
VERTEX
8
OBJECT__20
10
0
20
0
30
0
70
128
71
123
72
124
73
121
0
VERTEX
8
OBJECT__20
10
0
20
0
30
0
70
128
71
9
72
115
73
128
0
VERTEX
8
OBJECT__20
10
0
20
0
30
0
70
128
71
115
72
124
73
128
0
VERTEX
8
OBJECT__20
10
0
20
0
30
0
70
128
71
128
72
129
73
9
0
VERTEX
8
OBJECT__20
10
0
20
0
30
0
70
128
71
8
72
10
73
130
0
VERTEX
8
OBJECT__20
10
0
20
0
30
0
70
128
71
130
72
10
73
9
0
VERTEX
8
OBJECT__20
10
0
20
0
30
0
70
128
71
9
72
131
73
130
0
VERTEX
8
OBJECT__20
10
0
20
0
30
0
70
128
71
8
72
132
73
133
0
VERTEX
8
OBJECT__20
10
0
20
0
30
0
70
128
71
8
72
134
73
132
0
VERTEX
8
OBJECT__20
10
0
20
0
30
0
70
128
71
133
72
7
73
8
0
VERTEX
8
OBJECT__20
10
0
20
0
30
0
70
128
71
44
72
7
73
135
0
VERTEX
8
OBJECT__20
10
0
20
0
30
0
70
128
71
7
72
136
73
135
0
VERTEX
8
OBJECT__20
10
0
20
0
30
0
70
128
71
137
72
138
73
45
0
VERTEX
8
OBJECT__20
10
0
20
0
30
0
70
128
71
44
72
139
73
137
0
VERTEX
8
OBJECT__20
10
0
20
0
30
0
70
128
71
137
72
42
73
44
0
VERTEX
8
OBJECT__20
10
0
20
0
30
0
70
128
71
44
72
140
73
139
0
VERTEX
8
OBJECT__20
10
0
20
0
30
0
70
128
71
46
72
45
73
141
0
VERTEX
8
OBJECT__20
10
0
20
0
30
0
70
128
71
141
72
142
73
46
0
VERTEX
8
OBJECT__20
10
0
20
0
30
0
70
128
71
45
72
138
73
141
0
VERTEX
8
OBJECT__20
10
0
20
0
30
0
70
128
71
46
72
143
73
144
0
VERTEX
8
OBJECT__20
10
0
20
0
30
0
70
128
71
144
72
145
73
46
0
VERTEX
8
OBJECT__20
10
0
20
0
30
0
70
128
71
146
72
147
73
148
0
VERTEX
8
OBJECT__20
10
0
20
0
30
0
70
128
71
148
72
149
73
146
0
VERTEX
8
OBJECT__20
10
0
20
0
30
0
70
128
71
150
72
146
73
143
0
VERTEX
8
OBJECT__20
10
0
20
0
30
0
70
128
71
143
72
46
73
150
0
VERTEX
8
OBJECT__20
10
0
20
0
30
0
70
128
71
149
72
143
73
146
0
VERTEX
8
OBJECT__20
10
0
20
0
30
0
70
128
71
145
72
49
73
46
0
VERTEX
8
OBJECT__20
10
0
20
0
30
0
70
128
71
142
72
150
73
46
0
VERTEX
8
OBJECT__20
10
0
20
0
30
0
70
128
71
45
72
42
73
137
0
VERTEX
8
OBJECT__20
10
0
20
0
30
0
70
128
71
135
72
140
73
44
0
VERTEX
8
OBJECT__20
10
0
20
0
30
0
70
128
71
133
72
136
73
7
0
VERTEX
8
OBJECT__20
10
0
20
0
30
0
70
128
71
130
72
134
73
8
0
VERTEX
8
OBJECT__20
10
0
20
0
30
0
70
128
71
129
72
131
73
9
0
VERTEX
8
OBJECT__20
10
0
20
0
30
0
70
128
71
122
72
151
73
123
0
VERTEX
8
OBJECT__20
10
0
20
0
30
0
70
128
71
117
72
126
73
115
0
VERTEX
8
OBJECT__20
10
0
20
0
30
0
70
128
71
114
72
120
73
11
0
VERTEX
8
OBJECT__20
10
0
20
0
30
0
70
128
71
111
72
112
73
12
0
VERTEX
8
OBJECT__20
10
0
20
0
30
0
70
128
71
108
72
110
73
6
0
VERTEX
8
OBJECT__20
10
0
20
0
30
0
70
128
71
106
72
109
73
26
0
VERTEX
8
OBJECT__20
10
0
20
0
30
0
70
128
71
104
72
26
73
25
0
VERTEX
8
OBJECT__20
10
0
20
0
30
0
70
128
71
100
72
105
73
24
0
VERTEX
8
OBJECT__20
10
0
20
0
30
0
70
128
71
98
72
102
73
21
0
VERTEX
8
OBJECT__20
10
0
20
0
30
0
70
128
71
96
72
97
73
20
0
VERTEX
8
OBJECT__20
10
0
20
0
30
0
70
128
71
89
72
20
73
19
0
VERTEX
8
OBJECT__20
10
0
20
0
30
0
70
128
71
84
72
19
73
18
0
VERTEX
8
OBJECT__20
10
0
20
0
30
0
70
128
71
82
72
87
73
18
0
VERTEX
8
OBJECT__20
10
0
20
0
30
0
70
128
71
78
72
80
73
36
0
VERTEX
8
OBJECT__20
10
0
20
0
30
0
70
128
71
75
72
79
73
35
0
VERTEX
8
OBJECT__20
10
0
20
0
30
0
70
128
71
70
72
76
73
65
0
VERTEX
8
OBJECT__20
10
0
20
0
30
0
70
128
71
65
72
33
73
63
0
VERTEX
8
OBJECT__20
10
0
20
0
30
0
70
128
71
62
72
31
73
28
0
VERTEX
8
OBJECT__20
10
0
20
0
30
0
70
128
71
58
72
61
73
27
0
VERTEX
8
OBJECT__20
10
0
20
0
30
0
70
128
71
56
72
41
73
40
0
VERTEX
8
OBJECT__20
10
0
20
0
30
0
70
128
71
52
72
40
73
43
0
VERTEX
8
OBJECT__20
10
0
20
0
30
0
70
128
71
48
72
43
73
46
0
VERTEX
8
OBJECT__20
10
0
20
0
30
0
70
128
71
43
72
42
73
45
0
VERTEX
8
OBJECT__20
10
0
20
0
30
0
70
128
71
38
72
3
73
7
0
VERTEX
8
OBJECT__20
10
0
20
0
30
0
70
128
71
3
72
38
73
37
0
VERTEX
8
OBJECT__20
10
0
20
0
30
0
70
128
71
39
72
38
73
44
0
VERTEX
8
OBJECT__20
10
0
20
0
30
0
70
128
71
40
72
39
73
42
0
VERTEX
8
OBJECT__20
10
0
20
0
30
0
70
128
71
41
72
29
73
39
0
VERTEX
8
OBJECT__20
10
0
20
0
30
0
70
128
71
29
72
37
73
38
0
VERTEX
8
OBJECT__20
10
0
20
0
30
0
70
128
71
23
72
37
73
30
0
VERTEX
8
OBJECT__20
10
0
20
0
30
0
70
128
71
37
72
29
73
28
0
VERTEX
8
OBJECT__20
10
0
20
0
30
0
70
128
71
32
72
14
73
13
0
VERTEX
8
OBJECT__20
10
0
20
0
30
0
70
128
71
36
72
18
73
16
0
VERTEX
8
OBJECT__20
10
0
20
0
30
0
70
128
71
34
72
16
73
14
0
VERTEX
8
OBJECT__20
10
0
20
0
30
0
70
128
71
35
72
36
73
34
0
VERTEX
8
OBJECT__20
10
0
20
0
30
0
70
128
71
33
72
34
73
32
0
VERTEX
8
OBJECT__20
10
0
20
0
30
0
70
128
71
31
72
32
73
30
0
VERTEX
8
OBJECT__20
10
0
20
0
30
0
70
128
71
29
72
41
73
27
0
VERTEX
8
OBJECT__20
10
0
20
0
30
0
70
128
71
5
72
25
73
26
0
VERTEX
8
OBJECT__20
10
0
20
0
30
0
70
128
71
1
72
22
73
25
0
VERTEX
8
OBJECT__20
10
0
20
0
30
0
70
128
71
24
72
25
73
22
0
VERTEX
8
OBJECT__20
10
0
20
0
30
0
70
128
71
23
72
13
73
22
0
VERTEX
8
OBJECT__20
10
0
20
0
30
0
70
128
71
21
72
24
73
15
0
VERTEX
8
OBJECT__20
10
0
20
0
30
0
70
128
71
20
72
21
73
17
0
VERTEX
8
OBJECT__20
10
0
20
0
30
0
70
128
71
19
72
17
73
16
0
VERTEX
8
OBJECT__20
10
0
20
0
30
0
70
128
71
17
72
15
73
14
0
VERTEX
8
OBJECT__20
10
0
20
0
30
0
70
128
71
15
72
22
73
13
0
VERTEX
8
OBJECT__20
10
0
20
0
30
0
70
128
71
12
72
11
73
10
0
VERTEX
8
OBJECT__20
10
0
20
0
30
0
70
128
71
11
72
115
73
9
0
VERTEX
8
OBJECT__20
10
0
20
0
30
0
70
128
71
4
72
10
73
8
0
VERTEX
8
OBJECT__20
10
0
20
0
30
0
70
128
71
2
72
8
73
7
0
VERTEX
8
OBJECT__20
10
0
20
0
30
0
70
128
71
5
72
4
73
2
0
VERTEX
8
OBJECT__20
10
0
20
0
30
0
70
128
71
6
72
12
73
4
0
VERTEX
8
OBJECT__20
10
0
20
0
30
0
70
128
71
3
72
23
73
1
0
SEQEND
8
OBJECT__20
0
ENDSEC
0
EOF
